999
DXF file: A0701014_KOINE_BINARIO.dxf
999
Pro/ENGINEER 2023494 by Parametric Technology Corporation
  0
SECTION
  2
HEADER
  9
$ACADVER
  1
AC1027
  9
$DWGCODEPAGE
  3
ANSI_1252
  9
$EXTMAX
 10
297.0
 20
420.0
 30
0.0
  9
$EXTMIN
 10
0.0
 20
0.0
 30
0.0
  9
$LIMMIN
 10
0.0
 20
0.0
  9
$LIMMAX
 10
297.0
 20
420.0
  9
$VIEWCTR
 10
148.5
 20
210.0
  9
$VIEWSIZE
 40
420.0
  9
$CLAYER
  8
0
  9
$LTSCALE
 40
27.3777777778
  9
$CELTYPE
  6
BYLAYER
  9
$DIMSCALE
 40
1.0
  9
$DIMASZ
 40
4.0
  9
$DIMEXO
 40
1.0
  9
$DIMDLI
 40
18.9155555556
  9
$DIMEXE
 40
1.0
  9
$DIMCEN
 40
4.48
  9
$DIMLFAC
 40
1.0
  9
$DIMBLK
  1
_FILLED
  9
$DIMALT
 70
0
  9
$DIMALTF
 40
0.0393700787
  9
$DIMTXT
 40
3.0
  9
$DIMTOL
 70
1
  9
$DIMLIM
 70
0
  9
$DIMTFAC
 40
1.0
  9
$DIMTP
 40
0.001
  9
$DIMTM
 40
0.001
  9
$DIMGAP
 40
0.625
  9
$DIMDSEP
 70
46
  9
$AUNITS
 70
0
  9
$PDMODE
 70
3
  9
$PDSIZE
 40
0.3125
  9
$HANDSEED
  5
429
  9
$TILEMODE
 70
1
  9
$MEASUREMENT
 70
1
  9
$INSUNITS
 70
4
  0
ENDSEC
  0
SECTION
  2
CLASSES
  0
CLASS
  1
ACDBDICTIONARYWDFLT
  2
AcDbDictionaryWithDefault
  3
AutoCAD 2000
 90
0
 91
1
280
0
281
0
  0
CLASS
  1
ACDBPLACEHOLDER
  2
AcDbPlaceHolder
  3
AutoCAD 2000
 90
0
 91
1
280
0
281
0
  0
CLASS
  1
LAYOUT
  2
AcDbLayout
  3
AutoCAD 2000
 90
0
 91
0
280
0
281
0
  0
ENDSEC
  0
SECTION
  2
TABLES
  0
TABLE
  2
VPORT
  5
8
100
AcDbSymbolTable
 70
2
  0
VPORT
  5
1F4
100
AcDbSymbolTableRecord
100
AcDbViewportTableRecord
  2
*ACTIVE
 70
0
 10
0.0
 20
0.0
 11
1.0
 21
1.0
 12
148.5
 22
210.0
 13
0.0
 23
0.0
 14
1.0
 24
1.0
 15
0.0
 25
0.0
 16
0.0
 26
0.0
 36
1.0
 17
0.0
 27
0.0
 37
0.0
 40
420.0
 41
0.7071428571
 42
50.0
 43
0.0
 44
0.0
 50
0.0
 51
0.0
 71
0
 72
100
 73
1
 74
1
 75
0
 76
0
 77
0
 78
0
  0
ENDTAB
  0
TABLE
  2
LTYPE
  5
5
100
AcDbSymbolTable
 70
6
  0
LTYPE
  5
14
100
AcDbSymbolTableRecord
100
AcDbLinetypeTableRecord
  2
BYBLOCK
 70
0
  3

 72
65
 73
0
 40
0.0
  0
LTYPE
  5
15
100
AcDbSymbolTableRecord
100
AcDbLinetypeTableRecord
  2
BYLAYER
 70
0
  3

 72
65
 73
0
 40
0.0
  0
LTYPE
  5
16
100
AcDbSymbolTableRecord
100
AcDbLinetypeTableRecord
  2
CONTINUOUS
 70
64
  3
Solid line
 72
65
 73
0
 40
0.0
  0
LTYPE
  5
1F5
100
AcDbSymbolTableRecord
100
AcDbLinetypeTableRecord
  2
CENTER
 70
64
  3
____ _ ____ _ ____ _ ____ _ ____ _ ____ _ ____
 72
65
 73
4
 40
0.6
 49
0.375
 74
0
 49
-0.075
 74
0
 49
0.075
 74
0
 49
-0.075
 74
0
  0
LTYPE
  5
1F6
100
AcDbSymbolTableRecord
100
AcDbLinetypeTableRecord
  2
HIDDEN
 70
64
  3
- - - - - - - - - - - - - - - - - - - -
 72
65
 73
2
 40
0.2
 49
0.1
 74
0
 49
-0.1
 74
0
  0
LTYPE
  5
1F7
100
AcDbSymbolTableRecord
100
AcDbLinetypeTableRecord
  2
PHANTOM
 70
64
  3
_____ _ _ _____ _ _ _____ _ _ _____
 72
65
 73
6
 40
0.8
 49
0.45
 74
0
 49
-0.05
 74
0
 49
0.1
 74
0
 49
-0.05
 74
0
 49
0.1
 74
0
 49
-0.05
 74
0
  0
LTYPE
  5
1F8
100
AcDbSymbolTableRecord
100
AcDbLinetypeTableRecord
  2
DOT
 70
64
  3
. . . . . . . . . . . . . . . . . . . .
 72
65
 73
2
 40
0.2
 49
0.1
 74
0
 49
-0.1
 74
0
  0
LTYPE
  5
1F9
100
AcDbSymbolTableRecord
100
AcDbLinetypeTableRecord
  2
DASHED
 70
64
  3
- - - - - - - - - - - - - - - - - - - -
 72
65
 73
2
 40
0.2
 49
0.1
 74
0
 49
-0.1
 74
0
  0
ENDTAB
  0
TABLE
  2
LAYER
  5
2
100
AcDbSymbolTable
 70
36
  0
LAYER
  5
10
100
AcDbSymbolTableRecord
100
AcDbLayerTableRecord
  2
0
 70
0
 62
7
  6
CONTINUOUS
370
-3
390
F
  0
LAYER
  5
1FA
100
AcDbSymbolTableRecord
100
AcDbLayerTableRecord
  2
DEFAULT_1
 70
0
 62
7
  6
CENTER
370
-3
390
F
  0
LAYER
  5
1FB
100
AcDbSymbolTableRecord
100
AcDbLayerTableRecord
  2
DEFAULT_2
 70
0
 62
8
  6
HIDDEN
370
-3
390
F
  0
LAYER
  5
1FC
100
AcDbSymbolTableRecord
100
AcDbLayerTableRecord
  2
DEFAULT_3
 70
0
 62
7
  6
PHANTOM
370
-3
390
F
  0
LAYER
  5
1FD
100
AcDbSymbolTableRecord
100
AcDbLayerTableRecord
  2
1_ALL_PLANES
 70
0
 62
7
  6
CONTINUOUS
370
-3
390
F
  0
LAYER
  5
1FE
100
AcDbSymbolTableRecord
100
AcDbLayerTableRecord
  2
1__DEF_ASM_PLN
 70
0
 62
7
  6
CONTINUOUS
370
-3
390
F
  0
LAYER
  5
1FF
100
AcDbSymbolTableRecord
100
AcDbLayerTableRecord
  2
1__DEF_PLANES
 70
0
 62
7
  6
CONTINUOUS
370
-3
390
F
  0
LAYER
  5
200
100
AcDbSymbolTableRecord
100
AcDbLayerTableRecord
  2
2_ALL_CSYS
 70
0
 62
7
  6
CONTINUOUS
370
-3
390
F
  0
LAYER
  5
201
100
AcDbSymbolTableRecord
100
AcDbLayerTableRecord
  2
2__DEF_ASM_CSYS
 70
0
 62
7
  6
CONTINUOUS
370
-3
390
F
  0
LAYER
  5
202
100
AcDbSymbolTableRecord
100
AcDbLayerTableRecord
  2
2__DEF_CSYS
 70
0
 62
7
  6
CONTINUOUS
370
-3
390
F
  0
LAYER
  5
203
100
AcDbSymbolTableRecord
100
AcDbLayerTableRecord
  2
ALL_AXES
 70
0
 62
7
  6
CONTINUOUS
370
-3
390
F
  0
LAYER
  5
204
100
AcDbSymbolTableRecord
100
AcDbLayerTableRecord
  2
ALL_CURVES
 70
0
 62
7
  6
CONTINUOUS
370
-3
390
F
  0
LAYER
  5
205
100
AcDbSymbolTableRecord
100
AcDbLayerTableRecord
  2
ALL_FEATURES
 70
0
 62
7
  6
CONTINUOUS
370
-3
390
F
  0
LAYER
  5
206
100
AcDbSymbolTableRecord
100
AcDbLayerTableRecord
  2
ALL_PLANES
 70
0
 62
7
  6
CONTINUOUS
370
-3
390
F
  0
LAYER
  5
207
100
AcDbSymbolTableRecord
100
AcDbLayerTableRecord
  2
BLOCCACAVO
 70
0
 62
7
  6
CONTINUOUS
370
-3
390
F
  0
LAYER
  5
208
100
AcDbSymbolTableRecord
100
AcDbLayerTableRecord
  2
CAPPELLO
 70
0
 62
7
  6
CONTINUOUS
370
-3
390
F
  0
LAYER
  5
209
100
AcDbSymbolTableRecord
100
AcDbLayerTableRecord
  2
CAVI_HOLDER
 70
0
 62
7
  6
CONTINUOUS
370
-3
390
F
  0
LAYER
  5
20A
100
AcDbSymbolTableRecord
100
AcDbLayerTableRecord
  2
COASSIALE
 70
0
 62
7
  6
CONTINUOUS
370
-3
390
F
  0
LAYER
  5
20B
100
AcDbSymbolTableRecord
100
AcDbLayerTableRecord
  2
COPERTURA
 70
0
 62
7
  6
CONTINUOUS
370
-3
390
F
  0
LAYER
  5
20C
100
AcDbSymbolTableRecord
100
AcDbLayerTableRecord
  2
ETICHETTA
 70
0
 62
7
  6
CONTINUOUS
370
-3
390
F
  0
LAYER
  5
20D
100
AcDbSymbolTableRecord
100
AcDbLayerTableRecord
  2
FILETTI
 70
0
 62
7
  6
CONTINUOUS
370
-3
390
F
  0
LAYER
  5
20E
100
AcDbSymbolTableRecord
100
AcDbLayerTableRecord
  2
HOLDER_LED
 70
0
 62
7
  6
CONTINUOUS
370
-3
390
F
  0
LAYER
  5
20F
100
AcDbSymbolTableRecord
100
AcDbLayerTableRecord
  2
INTFCLR_285800
 70
0
 62
7
  6
CONTINUOUS
370
-3
390
F
  0
LAYER
  5
210
100
AcDbSymbolTableRecord
100
AcDbLayerTableRecord
  2
MORSETTO
 70
0
 62
7
  6
CONTINUOUS
370
-3
390
F
  0
LAYER
  5
211
100
AcDbSymbolTableRecord
100
AcDbLayerTableRecord
  2
NOTE
 70
0
 62
7
  6
CONTINUOUS
370
-3
390
F
  0
LAYER
  5
212
100
AcDbSymbolTableRecord
100
AcDbLayerTableRecord
  2
PIASTRA_FILETTATURE
 70
0
 62
7
  6
CONTINUOUS
370
-3
390
F
  0
LAYER
  5
213
100
AcDbSymbolTableRecord
100
AcDbLayerTableRecord
  2
PORTALENTE
 70
0
 62
7
  6
CONTINUOUS
370
-3
390
F
  0
LAYER
  5
214
100
AcDbSymbolTableRecord
100
AcDbLayerTableRecord
  2
TAPPO_MORSETTI
 70
0
 62
7
  6
CONTINUOUS
370
-3
390
F
  0
LAYER
  5
215
100
AcDbSymbolTableRecord
100
AcDbLayerTableRecord
  2
TUBETTO
 70
0
 62
7
  6
CONTINUOUS
370
-3
390
F
  0
ENDTAB
  0
TABLE
  2
STYLE
  5
3
100
AcDbSymbolTable
 70
1
  0
STYLE
  5
11
100
AcDbSymbolTableRecord
100
AcDbTextStyleTableRecord
  2
STANDARD
 70
0
 40
0.0
 41
1.0
 50
0.0
 71
0
 42
0.2
  3
trium.ttf
  4

1001
ACAD
1000
CG Triumvirate
1071
34
  0
STYLE
  5
216
100
AcDbSymbolTableRecord
100
AcDbTextStyleTableRecord
  2
TEXTSTYLE_1
 70
0
 40
0.0
 41
0.8
 50
0.0
 71
0
 42
0.2
  3
gdt
  4

  0
ENDTAB
  0
TABLE
  2
VIEW
  5
6
100
AcDbSymbolTable
 70
0
  0
ENDTAB
  0
TABLE
  2
UCS
  5
7
100
AcDbSymbolTable
 70
0
  0
ENDTAB
  0
TABLE
  2
APPID
  5
9
100
AcDbSymbolTable
 70
1
  0
APPID
  5
217
100
AcDbSymbolTableRecord
100
AcDbRegAppTableRecord
  2
ACAD
 70
0
  0
ENDTAB
  0
TABLE
  2
BLOCK_RECORD
  5
1
100
AcDbSymbolTable
 70
0
  0
BLOCK_RECORD
  5
218
100
AcDbSymbolTableRecord
100
AcDbBlockTableRecord
  2
*Model_Space
  0
BLOCK_RECORD
  5
219
100
AcDbSymbolTableRecord
100
AcDbBlockTableRecord
  2
*Paper_Space
  0
BLOCK_RECORD
  5
21A
100
AcDbSymbolTableRecord
100
AcDbBlockTableRecord
  2
_FILLED
  0
ENDTAB
  0
TABLE
  2
DIMSTYLE
  5
A
100
AcDbSymbolTable
 70
1
100
AcDbDimStyleTable
 71
0
  0
DIMSTYLE
105
21B
100
AcDbSymbolTableRecord
100
AcDbDimStyleTableRecord
  2
STANDARD
 70
0
  3

  4

 40
1.0
 41
4.0
 42
1.0
 43
0.38
 44
1.0
 45
0.0
 46
0.0
 47
0.001
 48
0.001
140
3.0
141
0.09
142
0.0
143
25.4
144
1.0
145
0.0
146
1.0
147
0.625
 71
1
 72
0
 73
0
 74
0
 75
0
 76
0
 77
1
 78
8
 79
2
170
0
171
2
172
0
173
0
174
0
175
0
176
0
177
0
178
0
270
2
179
3
271
3
272
3
273
2
274
2
275
0
280
0
281
0
282
0
283
1
284
8
285
0
286
0
287
3
288
0
340
11
278
46
341
21A
342
21A
343
21A
344
21A
  0
ENDTAB
  0
ENDSEC
  0
SECTION
  2
BLOCKS
  0
BLOCK
  5
20
100
AcDbEntity
  8
0
100
AcDbBlockBegin
  2
*Model_Space
 70
0
 10
0.0
 20
0.0
 30
0.0
  3
*Model_Space
  1

  0
ENDBLK
  5
21
100
AcDbEntity
  8
0
100
AcDbBlockEnd
  0
BLOCK
  5
1C
100
AcDbEntity
  8
0
100
AcDbBlockBegin
  2
*Paper_Space
 70
0
 10
0.0
 20
0.0
 30
0.0
  3
*Paper_Space
  1

  0
ENDBLK
  5
1D
100
AcDbEntity
  8
0
100
AcDbBlockEnd
  0
BLOCK
  5
21C
100
AcDbEntity
  8
0
100
AcDbBlockBegin
  2
_FILLED
 70
64
 10
0.0
 20
0.0
 30
0.0
  3
_FILLED
  1

  0
SOLID
  5
21D
100
AcDbEntity
  8
0
  6
BYBLOCK
 62
0
100
AcDbTrace
 10
0.0
 20
0.0
 30
0.0
 11
-1.0
 21
0.1875
 31
0.0
 12
-1.0
 22
-0.1875
 32
0.0
 13
-1.0
 23
-0.1875
 33
0.0
  0
ENDBLK
  5
21E
100
AcDbEntity
  8
0
  6
BYBLOCK
 62
0
100
AcDbBlockEnd
  0
ENDSEC
  0
SECTION
  2
ENTITIES
  0
LINE
  5
21F
100
AcDbEntity
  8
0
100
AcDbLine
 62
7
  6
CONTINUOUS
 10
0.0
 20
0.0
 30
0.0
 11
297.0
 21
0.0
 31
0.0
  0
LINE
  5
220
100
AcDbEntity
  8
0
100
AcDbLine
 62
7
  6
CONTINUOUS
 10
0.0
 20
0.0
 30
0.0
 11
0.0
 21
420.0
 31
0.0
  0
LINE
  5
221
100
AcDbEntity
  8
0
100
AcDbLine
 62
7
  6
CONTINUOUS
 10
297.0
 20
0.0
 30
0.0
 11
297.0
 21
420.0
 31
0.0
  0
LINE
  5
222
100
AcDbEntity
  8
0
100
AcDbLine
 62
7
  6
CONTINUOUS
 10
0.0
 20
420.0
 30
0.0
 11
297.0
 21
420.0
 31
0.0
  0
LINE
  5
223
100
AcDbEntity
  8
PORTALENTE
100
AcDbLine
 62
7
  6
CONTINUOUS
 10
89.6335575362
 20
68.1284900438
 30
0.0
 11
64.0907956912
 21
68.1284900438
 31
0.0
  0
LINE
  5
224
100
AcDbEntity
  8
PORTALENTE
100
AcDbLine
 62
9
  6
CONTINUOUS
 10
89.9640398552
 20
68.3632449274
 30
0.0
 11
63.7603133723
 21
68.3632449274
 31
0.0
  0
LINE
  5
225
100
AcDbEntity
  8
CAPPELLO
100
AcDbLine
 62
7
  6
CONTINUOUS
 10
41.9853590245
 20
70.1938288701
 30
0.0
 11
111.738994203
 21
70.1938288701
 31
0.0
  0
LINE
  5
226
100
AcDbEntity
  8
CAPPELLO
100
AcDbLine
 62
7
  6
CONTINUOUS
 10
41.8621766137
 20
70.7041729635
 30
0.0
 11
111.8621766137
 21
70.7041729635
 31
0.0
  0
LINE
  5
227
100
AcDbEntity
  8
CAPPELLO
100
AcDbLine
 62
9
  6
CONTINUOUS
 10
91.3336153048
 20
75.6591782306
 30
0.0
 11
62.3907379227
 21
75.6591782306
 31
0.0
  0
LINE
  5
228
100
AcDbEntity
  8
CAPPELLO
100
AcDbLine
 62
7
  6
CONTINUOUS
 10
91.0872504833
 20
75.6884900438
 30
0.0
 11
62.6371027442
 21
75.6884900438
 31
0.0
  0
LINE
  5
229
100
AcDbEntity
  8
COPERTURA
100
AcDbLine
 62
7
  6
CONTINUOUS
 10
75.1121766137
 20
76.5634900438
 30
0.0
 11
78.6121766137
 21
76.5634900438
 31
0.0
  0
LINE
  5
22A
100
AcDbEntity
  8
0
100
AcDbLine
 62
7
  6
CONTINUOUS
 10
52.8534321994
 20
344.650400549
 30
0.0
 11
52.7296759473
 21
344.5266442968
 31
0.0
  0
LINE
  5
22B
100
AcDbEntity
  8
CAPPELLO
100
AcDbLine
 62
7
  6
CONTINUOUS
 10
62.3907379227
 20
75.6591782306
 30
0.0
 11
41.8621766137
 21
70.7041729635
 31
0.0
  0
LINE
  5
22C
100
AcDbEntity
  8
CAPPELLO
100
AcDbLine
 62
7
  6
CONTINUOUS
 10
62.6371027442
 20
75.6884900438
 30
0.0
 11
62.3907379227
 21
75.6591782306
 31
0.0
  0
LINE
  5
22D
100
AcDbEntity
  8
TUBETTO
100
AcDbLine
 62
7
  6
CONTINUOUS
 10
75.8121766137
 20
86.3634900438
 30
0.0
 11
77.9121766137
 21
86.3634900438
 31
0.0
  0
LINE
  5
22E
100
AcDbEntity
  8
CAPPELLO
100
AcDbLine
 62
7
  6
CONTINUOUS
 10
91.0872504833
 20
75.6884900438
 30
0.0
 11
91.3336153048
 21
75.6591782306
 31
0.0
  0
LINE
  5
22F
100
AcDbEntity
  8
CAPPELLO
100
AcDbLine
 62
7
  6
CONTINUOUS
 10
91.3336153048
 20
75.6591782306
 30
0.0
 11
111.8621766137
 21
70.7041729635
 31
0.0
  0
LINE
  5
230
100
AcDbEntity
  8
0
100
AcDbLine
 62
9
  6
CONTINUOUS
 10
71.4817235005
 20
343.7345996143
 30
0.0
 11
71.477141546
 21
343.7300176598
 31
0.0
  0
LINE
  5
231
100
AcDbEntity
  8
0
100
AcDbLine
 62
9
  6
CONTINUOUS
 10
71.477141546
 20
342.6023707906
 30
0.0
 11
71.4807030199
 21
342.6059322645
 31
0.0
  0
LINE
  5
232
100
AcDbEntity
  8
0
100
AcDbLine
 62
9
  6
CONTINUOUS
 10
71.6521148926
 20
342.427397444
 30
0.0
 11
71.6528240094
 21
342.4281065608
 31
0.0
  0
LINE
  5
233
100
AcDbEntity
  8
0
100
AcDbLine
 62
7
  6
CONTINUOUS
 10
72.9246766137
 20
340.2884900439
 30
0.0
 11
72.7496766137
 21
340.1134900439
 31
0.0
  0
LINE
  5
234
100
AcDbEntity
  8
0
100
AcDbLine
 62
9
  6
CONTINUOUS
 10
80.4880477724
 20
342.6023707907
 30
0.0
 11
80.4919462081
 21
342.6062692264
 31
0.0
  0
LINE
  5
235
100
AcDbEntity
  8
0
100
AcDbLine
 62
9
  6
CONTINUOUS
 10
80.663021119
 20
342.427397444
 30
0.0
 11
80.6637302358
 21
342.4281065608
 31
0.0
  0
LINE
  5
236
100
AcDbEntity
  8
0
100
AcDbLine
 62
9
  6
CONTINUOUS
 10
82.5180477724
 20
343.7300176598
 30
0.0
 11
82.5226297269
 21
343.7345996143
 31
0.0
  0
LINE
  5
237
100
AcDbEntity
  8
0
100
AcDbLine
 62
7
  6
CONTINUOUS
 10
72.9246766137
 20
328.9134900439
 30
0.0
 11
72.7496766137
 21
328.7384900439
 31
0.0
  0
LINE
  5
238
100
AcDbEntity
  8
0
100
AcDbLine
 62
7
  6
CONTINUOUS
 10
80.7996766137
 20
329.2634900439
 30
0.0
 11
80.9746766137
 21
329.4384900439
 31
0.0
  0
LINE
  5
239
100
AcDbEntity
  8
0
100
AcDbLine
 62
9
  6
CONTINUOUS
 10
80.4926297269
 20
342.6936157602
 30
0.0
 11
80.5598853805
 21
342.7901822129
 31
0.0
  0
LINE
  5
23A
100
AcDbEntity
  8
0
100
AcDbLine
 62
9
  6
CONTINUOUS
 10
80.7313705356
 20
342.6843119751
 30
0.0
 11
80.5720353754
 21
342.4555366916
 31
0.0
  0
LINE
  5
23B
100
AcDbEntity
  8
0
100
AcDbLine
 62
7
  6
CONTINUOUS
 10
72.9246766138
 20
317.5384900439
 30
0.0
 11
72.7496766138
 21
317.3634900439
 31
0.0
  0
LINE
  5
23C
100
AcDbEntity
  8
0
100
AcDbLine
 62
7
  6
CONTINUOUS
 10
80.7996766137
 20
317.8884900439
 30
0.0
 11
80.9746766137
 21
318.0634900439
 31
0.0
  0
LINE
  5
23D
100
AcDbEntity
  8
0
100
AcDbLine
 62
7
  6
CONTINUOUS
 10
80.7996766137
 20
316.8384900439
 30
0.0
 11
80.9746766137
 21
317.0134900439
 31
0.0
  0
LINE
  5
23E
100
AcDbEntity
  8
0
100
AcDbLine
 62
7
  6
CONTINUOUS
 10
48.7347653889
 20
344.3166442968
 30
0.0
 11
48.7872653889
 21
344.5266442968
 31
0.0
  0
LINE
  5
23F
100
AcDbEntity
  8
0
100
AcDbLine
 62
9
  6
CONTINUOUS
 10
48.8891303514
 20
344.5266442968
 30
0.0
 11
48.8366303514
 21
344.3166442968
 31
0.0
  0
LINE
  5
240
100
AcDbEntity
  8
CAPPELLO
100
AcDbLine
 62
7
  6
CONTINUOUS
 10
41.8621766137
 20
70.7041729635
 30
0.0
 11
41.9853590245
 21
70.1938288701
 31
0.0
  0
LINE
  5
241
100
AcDbEntity
  8
0
100
AcDbLine
 62
9
  6
CONTINUOUS
 10
72.9974071505
 20
342.8528967065
 30
0.0
 11
73.1039396998
 21
343.1355866423
 31
0.0
  0
LINE
  5
242
100
AcDbEntity
  8
0
100
AcDbLine
 62
9
  6
CONTINUOUS
 10
73.2317235005
 20
342.9686487614
 30
0.0
 11
73.1644678469
 21
342.7901822129
 31
0.0
  0
LINE
  5
243
100
AcDbEntity
  8
PORTALENTE
100
AcDbLine
 62
7
  6
CONTINUOUS
 10
63.1219558948
 20
70.1938288701
 30
0.0
 11
63.7603133723
 21
68.3632449274
 31
0.0
  0
LINE
  5
244
100
AcDbEntity
  8
0
100
AcDbLine
 62
7
  6
CONTINUOUS
 10
51.4373416336
 20
342.4319793986
 30
0.0
 11
51.4488055027
 21
342.5462932368
 31
0.0
  0
LINE
  5
245
100
AcDbEntity
  8
0
100
AcDbLine
 62
7
  6
CONTINUOUS
 10
48.7347653889
 20
342.0997355418
 30
0.0
 11
48.7347653889
 21
344.3166442968
 31
0.0
  0
LINE
  5
246
100
AcDbEntity
  8
0
100
AcDbLine
 62
9
  6
CONTINUOUS
 10
48.8397653889
 20
342.1739616378
 30
0.0
 11
48.8397653889
 21
344.3166442968
 31
0.0
  0
LINE
  5
247
100
AcDbEntity
  8
0
100
AcDbLine
 62
7
  6
CONTINUOUS
 10
52.8757009179
 20
343.0633463933
 30
0.0
 11
52.8720385142
 21
342.9958525205
 31
0.0
  0
LINE
  5
248
100
AcDbEntity
  8
0
100
AcDbLine
 62
7
  6
CONTINUOUS
 10
51.1478345981
 20
342.3140603261
 30
0.0
 11
51.1478345981
 21
343.8570809569
 31
0.0
  0
LINE
  5
249
100
AcDbEntity
  8
0
100
AcDbLine
 62
7
  6
CONTINUOUS
 10
51.4308638309
 20
343.9620809569
 30
0.0
 11
51.4308638309
 21
342.4319793986
 31
0.0
  0
LINE
  5
24A
100
AcDbEntity
  8
0
100
AcDbLine
 62
7
  6
CONTINUOUS
 10
51.444620873
 20
343.2395735385
 30
0.0
 11
51.444620873
 21
343.9620809569
 31
0.0
  0
LINE
  5
24B
100
AcDbEntity
  8
0
100
AcDbLine
 62
7
  6
CONTINUOUS
 10
52.879620873
 20
343.962080957
 30
0.0
 11
52.879620873
 21
343.2395735386
 31
0.0
  0
LINE
  5
24C
100
AcDbEntity
  8
0
100
AcDbLine
 62
7
  6
CONTINUOUS
 10
52.8933779151
 20
342.4319793986
 30
0.0
 11
52.8933779151
 21
343.962080957
 31
0.0
  0
LINE
  5
24D
100
AcDbEntity
  8
0
100
AcDbLine
 62
7
  6
CONTINUOUS
 10
53.1764071479
 20
343.857080957
 30
0.0
 11
53.1764071479
 21
342.2090603261
 31
0.0
  0
LINE
  5
24E
100
AcDbEntity
  8
0
100
AcDbLine
 62
7
  6
CONTINUOUS
 10
60.2180775904
 20
344.0261442968
 30
0.0
 11
60.2122718894
 21
343.8598907743
 31
0.0
  0
LINE
  5
24F
100
AcDbEntity
  8
0
100
AcDbLine
 62
9
  6
CONTINUOUS
 10
71.4817235005
 20
342.6596583507
 30
0.0
 11
71.4935281951
 21
342.7773707871
 31
0.0
  0
LINE
  5
250
100
AcDbEntity
  8
0
100
AcDbLine
 62
9
  6
CONTINUOUS
 10
71.5983842963
 20
342.6843119751
 30
0.0
 11
71.5746375423
 21
342.4475173479
 31
0.0
  0
LINE
  5
251
100
AcDbEntity
  8
0
100
AcDbLine
 62
7
  6
CONTINUOUS
 10
72.7496766137
 20
338.4509686306
 30
0.0
 11
72.7502157839
 21
338.4546205395
 31
0.0
  0
LINE
  5
252
100
AcDbEntity
  8
0
100
AcDbLine
 62
7
  6
CONTINUOUS
 10
72.7502204158
 20
338.4546519918
 30
0.0
 11
72.7496766137
 21
338.4509686306
 31
0.0
  0
LINE
  5
253
100
AcDbEntity
  8
0
100
AcDbLine
 62
7
  6
CONTINUOUS
 10
52.8754362434
 20
342.5462932368
 30
0.0
 11
52.8869001124
 21
342.4319793986
 31
0.0
  0
LINE
  5
254
100
AcDbEntity
  8
0
100
AcDbLine
 62
7
  6
CONTINUOUS
 10
51.4522032318
 20
342.9958525205
 30
0.0
 11
51.4485408281
 21
343.0633463933
 31
0.0
  0
LINE
  5
255
100
AcDbEntity
  8
0
100
AcDbLine
 62
7
  6
CONTINUOUS
 10
59.6394387527
 20
343.8598907743
 30
0.0
 11
59.6336330517
 21
344.0261442968
 31
0.0
  0
LINE
  5
256
100
AcDbEntity
  8
0
100
AcDbLine
 62
7
  6
CONTINUOUS
 10
59.540855321
 20
343.6761442968
 30
0.0
 11
59.540855321
 21
343.9911442968
 31
0.0
  0
LINE
  5
257
100
AcDbEntity
  8
0
100
AcDbLine
 62
7
  6
CONTINUOUS
 10
60.310855321
 20
343.9911442968
 30
0.0
 11
60.310855321
 21
343.6761442968
 31
0.0
  0
LINE
  5
258
100
AcDbEntity
  8
0
100
AcDbLine
 62
7
  6
CONTINUOUS
 10
72.7499409514
 20
318.1534838974
 30
0.0
 11
72.7496766137
 21
318.1509748237
 31
0.0
  0
LINE
  5
259
100
AcDbEntity
  8
0
100
AcDbLine
 62
7
  6
CONTINUOUS
 10
71.2017235005
 20
342.6069260918
 30
0.0
 11
71.2017235005
 21
343.7345996143
 31
0.0
  0
LINE
  5
25A
100
AcDbEntity
  8
0
100
AcDbLine
 62
7
  6
CONTINUOUS
 10
71.477141546
 20
343.7300176598
 30
0.0
 11
71.477141546
 21
342.6023707906
 31
0.0
  0
LINE
  5
25B
100
AcDbEntity
  8
0
100
AcDbLine
 62
7
  6
CONTINUOUS
 10
71.4817200746
 20
342.6605126213
 30
0.0
 11
71.4817235005
 21
342.9949176851
 31
0.0
  0
LINE
  5
25C
100
AcDbEntity
  8
0
100
AcDbLine
 62
7
  6
CONTINUOUS
 10
71.4817235005
 20
342.9949176851
 30
0.0
 11
71.4817235005
 21
343.7345996143
 31
0.0
  0
LINE
  5
25D
100
AcDbEntity
  8
0
100
AcDbLine
 62
9
  6
CONTINUOUS
 10
71.5983842963
 20
342.8528967065
 30
0.0
 11
71.5983842963
 21
342.6843119751
 31
0.0
  0
LINE
  5
25E
100
AcDbEntity
  8
0
100
AcDbLine
 62
7
  6
CONTINUOUS
 10
72.7496766137
 20
317.0134900439
 30
0.0
 11
72.7496766137
 21
317.3634900439
 31
0.0
  0
LINE
  5
25F
100
AcDbEntity
  8
0
100
AcDbLine
 62
7
  6
CONTINUOUS
 10
72.7496766137
 20
318.0634900439
 30
0.0
 11
72.7496766137
 21
318.1509900439
 31
0.0
  0
LINE
  5
260
100
AcDbEntity
  8
0
100
AcDbLine
 62
7
  6
CONTINUOUS
 10
72.7496766137
 20
319.0259900439
 30
0.0
 11
72.7496766137
 21
328.7384900439
 31
0.0
  0
LINE
  5
261
100
AcDbEntity
  8
0
100
AcDbLine
 62
7
  6
CONTINUOUS
 10
72.7496766137
 20
329.4384900439
 30
0.0
 11
72.7496766137
 21
338.4509900439
 31
0.0
  0
LINE
  5
262
100
AcDbEntity
  8
0
100
AcDbLine
 62
7
  6
CONTINUOUS
 10
72.7496766137
 20
339.6759900439
 30
0.0
 11
72.7496766137
 21
340.1134900439
 31
0.0
  0
LINE
  5
263
100
AcDbEntity
  8
ALL_FEATURES
100
AcDbLine
 62
7
  6
CONTINUOUS
 10
72.7592922707
 20
318.9237269279
 30
0.0
 11
72.7592922707
 21
318.2532531665
 31
0.0
  0
LINE
  5
264
100
AcDbEntity
  8
ALL_AXES
100
AcDbLine
 62
7
  6
CONTINUOUS
 10
72.7592922707
 20
318.0634900439
 30
0.0
 11
72.7592922707
 21
319.1134900439
 31
0.0
  0
LINE
  5
265
100
AcDbEntity
  8
0
100
AcDbLine
 62
7
  6
CONTINUOUS
 10
72.9246766137
 20
317.5384900439
 30
0.0
 11
72.9246766137
 21
317.8884900439
 31
0.0
  0
LINE
  5
266
100
AcDbEntity
  8
0
100
AcDbLine
 62
7
  6
CONTINUOUS
 10
72.9246766137
 20
328.9134900439
 30
0.0
 11
72.9246766137
 21
329.2634900439
 31
0.0
  0
LINE
  5
267
100
AcDbEntity
  8
0
100
AcDbLine
 62
7
  6
CONTINUOUS
 10
73.2317235005
 20
342.6936157602
 30
0.0
 11
73.2317235005
 21
343.7345996143
 31
0.0
  0
LINE
  5
268
100
AcDbEntity
  8
0
100
AcDbLine
 62
7
  6
CONTINUOUS
 10
73.5117235005
 20
342.6069260918
 30
0.0
 11
73.5117235005
 21
343.7345996143
 31
0.0
  0
LINE
  5
269
100
AcDbEntity
  8
0
100
AcDbLine
 62
7
  6
CONTINUOUS
 10
74.9371766137
 20
340.2884900439
 30
0.0
 11
74.9371766137
 21
340.3218908657
 31
0.0
  0
LINE
  5
26A
100
AcDbEntity
  8
COPERTURA
100
AcDbLine
 62
7
  6
CONTINUOUS
 10
75.1121766137
 20
75.6884900438
 30
0.0
 11
75.1121766137
 21
76.5634900438
 31
0.0
  0
LINE
  5
26B
100
AcDbEntity
  8
TUBETTO
100
AcDbLine
 62
7
  6
CONTINUOUS
 10
75.8121766137
 20
76.5634900438
 30
0.0
 11
75.8121766137
 21
86.3634900438
 31
0.0
  0
LINE
  5
26C
100
AcDbEntity
  8
TUBETTO
100
AcDbLine
 62
7
  6
CONTINUOUS
 10
76.1621766137
 20
79.7134900438
 30
0.0
 11
76.1621766137
 21
81.8134900438
 31
0.0
  0
LINE
  5
26D
100
AcDbEntity
  8
COASSIALE
100
AcDbLine
 62
6
  6
CONTINUOUS
 10
76.3371766137
 20
79.2510403518
 30
0.0
 11
76.3371766137
 21
82.2759370918
 31
0.0
  0
LINE
  5
26E
100
AcDbEntity
  8
COASSIALE
100
AcDbLine
 62
6
  6
CONTINUOUS
 10
76.3371766137
 20
86.3634900438
 30
0.0
 11
76.3371766137
 21
316.8384900439
 31
0.0
  0
LINE
  5
26F
100
AcDbEntity
  8
COASSIALE
100
AcDbLine
 62
6
  6
CONTINUOUS
 10
77.3871766137
 20
79.2510465729
 30
0.0
 11
77.3871766137
 21
82.2759394533
 31
0.0
  0
LINE
  5
270
100
AcDbEntity
  8
COASSIALE
100
AcDbLine
 62
6
  6
CONTINUOUS
 10
77.3871766137
 20
86.3634900438
 30
0.0
 11
77.3871766137
 21
316.8384900439
 31
0.0
  0
LINE
  5
271
100
AcDbEntity
  8
TUBETTO
100
AcDbLine
 62
7
  6
CONTINUOUS
 10
77.5621766137
 20
79.7134900438
 30
0.0
 11
77.5621766137
 21
81.8134900438
 31
0.0
  0
LINE
  5
272
100
AcDbEntity
  8
TUBETTO
100
AcDbLine
 62
7
  6
CONTINUOUS
 10
77.9121766137
 20
76.5634900438
 30
0.0
 11
77.9121766137
 21
86.3634900438
 31
0.0
  0
LINE
  5
273
100
AcDbEntity
  8
0
100
AcDbLine
 62
7
  6
CONTINUOUS
 10
77.9996766137
 20
343.9911442969
 30
0.0
 11
77.9996766137
 21
343.6761442969
 31
0.0
  0
LINE
  5
274
100
AcDbEntity
  8
0
100
AcDbLine
 62
7
  6
CONTINUOUS
 10
78.0871766137
 20
343.8598907743
 30
0.0
 11
78.0871766137
 21
344.0261442969
 31
0.0
  0
LINE
  5
275
100
AcDbEntity
  8
0
100
AcDbLine
 62
9
  6
CONTINUOUS
 10
82.1259689312
 20
342.8528967065
 30
0.0
 11
82.1413084667
 21
343.1355866423
 31
0.0
  0
LINE
  5
276
100
AcDbEntity
  8
0
100
AcDbLine
 62
9
  6
CONTINUOUS
 10
82.2426297269
 20
342.9949176851
 30
0.0
 11
82.2308250323
 21
342.7773707871
 31
0.0
  0
LINE
  5
277
100
AcDbEntity
  8
0
100
AcDbLine
 62
7
  6
CONTINUOUS
 10
80.9746766137
 20
319.0260052642
 30
0.0
 11
80.974412276
 21
319.0234961901
 31
0.0
  0
LINE
  5
278
100
AcDbEntity
  8
0
100
AcDbLine
 62
7
  6
CONTINUOUS
 10
72.7496782151
 20
319.0259864861
 30
0.0
 11
72.7499384981
 21
319.0235214449
 31
0.0
  0
LINE
  5
279
100
AcDbEntity
  8
0
100
AcDbLine
 62
7
  6
CONTINUOUS
 10
72.7499050543
 20
319.0238409553
 30
0.0
 11
72.7496782149
 21
319.0259864865
 31
0.0
  0
LINE
  5
27A
100
AcDbEntity
  8
0
100
AcDbLine
 62
9
  6
CONTINUOUS
 10
71.4935281951
 20
342.7773707871
 30
0.0
 11
71.4817235005
 21
342.9949176851
 31
0.0
  0
LINE
  5
27B
100
AcDbEntity
  8
0
100
AcDbLine
 62
9
  6
CONTINUOUS
 10
71.5830447608
 20
343.1355866422
 30
0.0
 11
71.5983842963
 21
342.8528967065
 31
0.0
  0
LINE
  5
27C
100
AcDbEntity
  8
COPERTURA
100
AcDbLine
 62
7
  6
CONTINUOUS
 10
78.6121766137
 20
75.6884900438
 30
0.0
 11
78.6121766137
 21
76.5634900438
 31
0.0
  0
LINE
  5
27D
100
AcDbEntity
  8
0
100
AcDbLine
 62
7
  6
CONTINUOUS
 10
78.7871766137
 20
344.0261442969
 30
0.0
 11
78.7871766137
 21
343.8598907743
 31
0.0
  0
LINE
  5
27E
100
AcDbEntity
  8
0
100
AcDbLine
 62
7
  6
CONTINUOUS
 10
78.7871766137
 20
340.2884900439
 30
0.0
 11
78.7871766137
 21
340.3218908657
 31
0.0
  0
LINE
  5
27F
100
AcDbEntity
  8
0
100
AcDbLine
 62
7
  6
CONTINUOUS
 10
78.8746766137
 20
343.6761442969
 30
0.0
 11
78.8746766137
 21
343.9911442969
 31
0.0
  0
LINE
  5
280
100
AcDbEntity
  8
0
100
AcDbLine
 62
7
  6
CONTINUOUS
 10
80.2126297269
 20
342.6069260919
 30
0.0
 11
80.2126297269
 21
343.7345996143
 31
0.0
  0
LINE
  5
281
100
AcDbEntity
  8
0
100
AcDbLine
 62
7
  6
CONTINUOUS
 10
80.4880477724
 20
343.7300176598
 30
0.0
 11
80.4880477724
 21
342.6023707907
 31
0.0
  0
LINE
  5
282
100
AcDbEntity
  8
0
100
AcDbLine
 62
7
  6
CONTINUOUS
 10
80.4926297269
 20
342.6936157602
 30
0.0
 11
80.4926297269
 21
343.7345996143
 31
0.0
  0
LINE
  5
283
100
AcDbEntity
  8
0
100
AcDbLine
 62
7
  6
CONTINUOUS
 10
80.7996766137
 20
317.5384900439
 30
0.0
 11
80.7996766137
 21
317.8884900439
 31
0.0
  0
LINE
  5
284
100
AcDbEntity
  8
0
100
AcDbLine
 62
7
  6
CONTINUOUS
 10
80.7996766137
 20
328.9134900439
 30
0.0
 11
80.7996766137
 21
329.2634900439
 31
0.0
  0
LINE
  5
285
100
AcDbEntity
  8
ALL_FEATURES
100
AcDbLine
 62
7
  6
CONTINUOUS
 10
80.9650609568
 20
318.2533805805
 30
0.0
 11
80.9650609568
 21
318.9235995078
 31
0.0
  0
LINE
  5
286
100
AcDbEntity
  8
ALL_AXES
100
AcDbLine
 62
7
  6
CONTINUOUS
 10
80.9650609568
 20
318.0634900439
 30
0.0
 11
80.9650609568
 21
319.1134900439
 31
0.0
  0
LINE
  5
287
100
AcDbEntity
  8
0
100
AcDbLine
 62
7
  6
CONTINUOUS
 10
80.9746766137
 20
317.0134900439
 30
0.0
 11
80.9746766137
 21
317.3634900439
 31
0.0
  0
LINE
  5
288
100
AcDbEntity
  8
0
100
AcDbLine
 62
7
  6
CONTINUOUS
 10
80.9746766137
 20
318.0634900439
 30
0.0
 11
80.9746766137
 21
318.1509900439
 31
0.0
  0
LINE
  5
289
100
AcDbEntity
  8
0
100
AcDbLine
 62
7
  6
CONTINUOUS
 10
80.9746766137
 20
319.0259900439
 30
0.0
 11
80.9746766137
 21
328.7384900439
 31
0.0
  0
LINE
  5
28A
100
AcDbEntity
  8
0
100
AcDbLine
 62
7
  6
CONTINUOUS
 10
80.9746766137
 20
329.4384900439
 30
0.0
 11
80.9746766137
 21
340.1134900439
 31
0.0
  0
LINE
  5
28B
100
AcDbEntity
  8
0
100
AcDbLine
 62
9
  6
CONTINUOUS
 10
82.1259689312
 20
342.8528967065
 30
0.0
 11
82.1259689312
 21
342.6843119751
 31
0.0
  0
LINE
  5
28C
100
AcDbEntity
  8
0
100
AcDbLine
 62
7
  6
CONTINUOUS
 10
82.2426297269
 20
342.6596583507
 30
0.0
 11
82.2426297269
 21
343.7345996143
 31
0.0
  0
LINE
  5
28D
100
AcDbEntity
  8
0
100
AcDbLine
 62
7
  6
CONTINUOUS
 10
82.2472116815
 20
343.7300176598
 30
0.0
 11
82.2472116815
 21
342.6023707907
 31
0.0
  0
LINE
  5
28E
100
AcDbEntity
  8
0
100
AcDbLine
 62
7
  6
CONTINUOUS
 10
82.5226297269
 20
342.6069260919
 30
0.0
 11
82.5226297269
 21
343.7345996143
 31
0.0
  0
LINE
  5
28F
100
AcDbEntity
  8
0
100
AcDbLine
 62
7
  6
CONTINUOUS
 10
100.8489169841
 20
342.5462932368
 30
0.0
 11
100.8374531151
 21
342.4319793986
 31
0.0
  0
LINE
  5
290
100
AcDbEntity
  8
0
100
AcDbLine
 62
7
  6
CONTINUOUS
 10
80.9744147293
 20
318.1534586434
 30
0.0
 11
80.9746750126
 21
318.1509936014
 31
0.0
  0
LINE
  5
291
100
AcDbEntity
  8
0
100
AcDbLine
 62
7
  6
CONTINUOUS
 10
80.9746750123
 20
318.1509936017
 30
0.0
 11
80.9744481731
 21
318.153139133
 31
0.0
  0
LINE
  5
292
100
AcDbEntity
  8
0
100
AcDbLine
 62
9
  6
CONTINUOUS
 10
82.1497156851
 20
342.4475173479
 30
0.0
 11
82.1259689312
 21
342.6843119751
 31
0.0
  0
LINE
  5
293
100
AcDbEntity
  8
0
100
AcDbLine
 62
9
  6
CONTINUOUS
 10
82.2308250323
 20
342.7773707871
 30
0.0
 11
82.2426297269
 21
342.6596583507
 31
0.0
  0
LINE
  5
294
100
AcDbEntity
  8
0
100
AcDbLine
 62
7
  6
CONTINUOUS
 10
96.0405931033
 20
343.0276317582
 30
0.0
 11
96.027511419
 21
344.5266442968
 31
0.0
  0
LINE
  5
295
100
AcDbEntity
  8
0
100
AcDbLine
 62
9
  6
CONTINUOUS
 10
96.0894074432
 20
344.509144297
 30
0.0
 11
96.0894074432
 21
344.3516442968
 31
0.0
  0
LINE
  5
296
100
AcDbEntity
  8
0
100
AcDbLine
 62
9
  6
CONTINUOUS
 10
96.1940078865
 20
344.3516442968
 30
0.0
 11
96.1940078865
 21
344.509144297
 31
0.0
  0
LINE
  5
297
100
AcDbEntity
  8
0
100
AcDbLine
 62
7
  6
CONTINUOUS
 10
96.2072818143
 20
344.3516442968
 30
0.0
 11
96.2072818143
 21
344.3226317582
 31
0.0
  0
LINE
  5
298
100
AcDbEntity
  8
0
100
AcDbLine
 62
9
  6
CONTINUOUS
 10
96.2132093685
 20
344.509144297
 30
0.0
 11
96.2132093685
 21
344.3226317582
 31
0.0
  0
LINE
  5
299
100
AcDbEntity
  8
0
100
AcDbLine
 62
9
  6
CONTINUOUS
 10
96.3875434407
 20
344.3226317582
 30
0.0
 11
96.3875434407
 21
344.404144297
 31
0.0
  0
LINE
  5
29A
100
AcDbEntity
  8
0
100
AcDbLine
 62
7
  6
CONTINUOUS
 10
102.2758123993
 20
343.0633463933
 30
0.0
 11
102.2721499956
 21
342.9958525205
 31
0.0
  0
LINE
  5
29B
100
AcDbEntity
  8
0
100
AcDbLine
 62
7
  6
CONTINUOUS
 10
72.7502204158
 20
339.6723280961
 30
0.0
 11
72.7496798014
 21
339.6759846914
 31
0.0
  0
LINE
  5
29C
100
AcDbEntity
  8
0
100
AcDbLine
 62
7
  6
CONTINUOUS
 10
72.7496798016
 20
339.6759846911
 30
0.0
 11
72.7501544145
 21
339.6727768518
 31
0.0
  0
LINE
  5
29D
100
AcDbEntity
  8
0
100
AcDbLine
 62
9
  6
CONTINUOUS
 10
98.6993931496
 20
344.404144297
 30
0.0
 11
98.6993931496
 21
344.3226317582
 31
0.0
  0
LINE
  5
29E
100
AcDbEntity
  8
0
100
AcDbLine
 62
9
  6
CONTINUOUS
 10
98.8737272218
 20
344.3226317582
 30
0.0
 11
98.8737272218
 21
344.509144297
 31
0.0
  0
LINE
  5
29F
100
AcDbEntity
  8
0
100
AcDbLine
 62
7
  6
CONTINUOUS
 10
98.879654776
 20
344.3516442968
 30
0.0
 11
98.879654776
 21
344.3226317582
 31
0.0
  0
LINE
  5
2A0
100
AcDbEntity
  8
0
100
AcDbLine
 62
9
  6
CONTINUOUS
 10
98.886579797
 20
344.509144297
 30
0.0
 11
98.886579797
 21
344.3516442968
 31
0.0
  0
LINE
  5
2A1
100
AcDbEntity
  8
0
100
AcDbLine
 62
9
  6
CONTINUOUS
 10
98.9911802403
 20
344.3516442968
 30
0.0
 11
98.9911802403
 21
344.509144297
 31
0.0
  0
LINE
  5
2A2
100
AcDbEntity
  8
0
100
AcDbLine
 62
7
  6
CONTINUOUS
 10
100.5479460796
 20
343.857080957
 30
0.0
 11
100.5479460796
 21
342.2090603261
 31
0.0
  0
LINE
  5
2A3
100
AcDbEntity
  8
0
100
AcDbLine
 62
7
  6
CONTINUOUS
 10
100.8309753124
 20
342.4319793986
 30
0.0
 11
100.8309753124
 21
343.962080957
 31
0.0
  0
LINE
  5
2A4
100
AcDbEntity
  8
0
100
AcDbLine
 62
7
  6
CONTINUOUS
 10
100.8447323544
 20
343.962080957
 30
0.0
 11
100.8447323544
 21
343.2395735386
 31
0.0
  0
LINE
  5
2A5
100
AcDbEntity
  8
0
100
AcDbLine
 62
7
  6
CONTINUOUS
 10
102.2797323544
 20
343.2395735386
 30
0.0
 11
102.2797323544
 21
343.9620809569
 31
0.0
  0
LINE
  5
2A6
100
AcDbEntity
  8
0
100
AcDbLine
 62
7
  6
CONTINUOUS
 10
102.2934893965
 20
343.9620809569
 30
0.0
 11
102.2934893965
 21
342.4319793986
 31
0.0
  0
LINE
  5
2A7
100
AcDbEntity
  8
0
100
AcDbLine
 62
7
  6
CONTINUOUS
 10
102.5765186293
 20
342.3140603261
 30
0.0
 11
102.5765186293
 21
343.8570809569
 31
0.0
  0
LINE
  5
2A8
100
AcDbEntity
  8
0
100
AcDbLine
 62
9
  6
CONTINUOUS
 10
104.8845878385
 20
344.3166442969
 30
0.0
 11
104.8845878385
 21
342.1739616378
 31
0.0
  0
LINE
  5
2A9
100
AcDbEntity
  8
0
100
AcDbLine
 62
7
  6
CONTINUOUS
 10
104.9895878385
 20
342.0997355418
 30
0.0
 11
104.9895878385
 21
344.3166442969
 31
0.0
  0
LINE
  5
2AA
100
AcDbEntity
  8
0
100
AcDbLine
 62
7
  6
CONTINUOUS
 10
99.0466082102
 20
343.0276317582
 30
0.0
 11
99.0596898944
 21
344.5266442969
 31
0.0
  0
LINE
  5
2AB
100
AcDbEntity
  8
0
100
AcDbLine
 62
7
  6
CONTINUOUS
 10
102.2870115938
 20
342.4319793986
 30
0.0
 11
102.2755477248
 21
342.5462932368
 31
0.0
  0
LINE
  5
2AC
100
AcDbEntity
  8
0
100
AcDbLine
 62
7
  6
CONTINUOUS
 10
100.8523147132
 20
342.9958525205
 30
0.0
 11
100.8486523096
 21
343.0633463933
 31
0.0
  0
LINE
  5
2AD
100
AcDbEntity
  8
PORTALENTE
100
AcDbLine
 62
7
  6
CONTINUOUS
 10
90.6023973326
 20
70.1938288701
 30
0.0
 11
89.9640398552
 21
68.3632449274
 31
0.0
  0
LINE
  5
2AE
100
AcDbEntity
  8
0
100
AcDbLine
 62
9
  6
CONTINUOUS
 10
80.5598853805
 20
342.7901822129
 30
0.0
 11
80.4926297269
 21
342.9686487614
 31
0.0
  0
LINE
  5
2AF
100
AcDbEntity
  8
0
100
AcDbLine
 62
9
  6
CONTINUOUS
 10
80.6204135276
 20
343.1355866423
 30
0.0
 11
80.726946077
 21
342.8528967065
 31
0.0
  0
LINE
  5
2B0
100
AcDbEntity
  8
CAPPELLO
100
AcDbLine
 62
7
  6
CONTINUOUS
 10
111.8621766137
 20
70.7041729635
 30
0.0
 11
111.738994203
 21
70.1938288701
 31
0.0
  0
LINE
  5
2B1
100
AcDbEntity
  8
0
100
AcDbLine
 62
9
  6
CONTINUOUS
 10
104.887722876
 20
344.3166442969
 30
0.0
 11
104.835222876
 21
344.5266442969
 31
0.0
  0
LINE
  5
2B2
100
AcDbEntity
  8
0
100
AcDbLine
 62
7
  6
CONTINUOUS
 10
104.9370878385
 20
344.5266442969
 30
0.0
 11
104.9895878385
 21
344.3166442969
 31
0.0
  0
LINE
  5
2B3
100
AcDbEntity
  8
0
100
AcDbLine
 62
7
  6
CONTINUOUS
 10
72.9246766137
 20
316.8384900439
 30
0.0
 11
72.7496766137
 21
317.0134900439
 31
0.0
  0
LINE
  5
2B4
100
AcDbEntity
  8
0
100
AcDbLine
 62
7
  6
CONTINUOUS
 10
72.9246766137
 20
317.8884900439
 30
0.0
 11
72.7496766137
 21
318.0634900439
 31
0.0
  0
LINE
  5
2B5
100
AcDbEntity
  8
0
100
AcDbLine
 62
9
  6
CONTINUOUS
 10
73.152317852
 20
342.4555366915
 30
0.0
 11
72.9929826918
 21
342.6843119751
 31
0.0
  0
LINE
  5
2B6
100
AcDbEntity
  8
0
100
AcDbLine
 62
9
  6
CONTINUOUS
 10
73.1644678469
 20
342.7901822129
 30
0.0
 11
73.2317235005
 21
342.6936157602
 31
0.0
  0
LINE
  5
2B7
100
AcDbEntity
  8
0
100
AcDbLine
 62
7
  6
CONTINUOUS
 10
80.7996766137
 20
317.5384900439
 30
0.0
 11
80.9746766137
 21
317.3634900439
 31
0.0
  0
LINE
  5
2B8
100
AcDbEntity
  8
0
100
AcDbLine
 62
7
  6
CONTINUOUS
 10
72.9246766137
 20
329.2634900439
 30
0.0
 11
72.7496766137
 21
329.4384900439
 31
0.0
  0
LINE
  5
2B9
100
AcDbEntity
  8
0
100
AcDbLine
 62
7
  6
CONTINUOUS
 10
80.7996766137
 20
328.9134900439
 30
0.0
 11
80.9746766137
 21
328.7384900439
 31
0.0
  0
LINE
  5
2BA
100
AcDbEntity
  8
0
100
AcDbLine
 62
9
  6
CONTINUOUS
 10
73.0613321084
 20
342.427397444
 30
0.0
 11
73.0606229916
 21
342.4281065608
 31
0.0
  0
LINE
  5
2BB
100
AcDbEntity
  8
0
100
AcDbLine
 62
9
  6
CONTINUOUS
 10
73.2363054551
 20
342.6023707906
 30
0.0
 11
73.2324070193
 21
342.6062692264
 31
0.0
  0
LINE
  5
2BC
100
AcDbEntity
  8
0
100
AcDbLine
 62
7
  6
CONTINUOUS
 10
80.7996766137
 20
340.2884900439
 30
0.0
 11
80.9746766137
 21
340.1134900439
 31
0.0
  0
LINE
  5
2BD
100
AcDbEntity
  8
0
100
AcDbLine
 62
9
  6
CONTINUOUS
 10
82.0722383348
 20
342.427397444
 30
0.0
 11
82.071529218
 21
342.4281065608
 31
0.0
  0
LINE
  5
2BE
100
AcDbEntity
  8
0
100
AcDbLine
 62
9
  6
CONTINUOUS
 10
82.2472116815
 20
342.6023707907
 30
0.0
 11
82.2436502075
 21
342.6059322646
 31
0.0
  0
LINE
  5
2BF
100
AcDbEntity
  8
0
100
AcDbLine
 62
9
  6
CONTINUOUS
 10
82.5180477724
 20
342.6115080464
 30
0.0
 11
82.5226297269
 21
342.6069260919
 31
0.0
  0
LINE
  5
2C0
100
AcDbEntity
  8
0
100
AcDbLine
 62
7
  6
CONTINUOUS
 10
80.7996766137
 20
316.8384900439
 30
0.0
 11
72.9246766137
 21
316.8384900439
 31
0.0
  0
LINE
  5
2C1
100
AcDbEntity
  8
0
100
AcDbLine
 62
7
  6
CONTINUOUS
 10
80.9746766137
 20
317.0134900439
 30
0.0
 11
72.7496766137
 21
317.0134900439
 31
0.0
  0
LINE
  5
2C2
100
AcDbEntity
  8
0
100
AcDbLine
 62
7
  6
CONTINUOUS
 10
72.7496766137
 20
317.3634900439
 30
0.0
 11
80.9746766137
 21
317.3634900439
 31
0.0
  0
LINE
  5
2C3
100
AcDbEntity
  8
0
100
AcDbLine
 62
7
  6
CONTINUOUS
 10
72.9246766137
 20
317.5384900439
 30
0.0
 11
80.7996766137
 21
317.5384900439
 31
0.0
  0
LINE
  5
2C4
100
AcDbEntity
  8
0
100
AcDbLine
 62
7
  6
CONTINUOUS
 10
72.9246766137
 20
317.8884900439
 30
0.0
 11
80.7996766137
 21
317.8884900439
 31
0.0
  0
LINE
  5
2C5
100
AcDbEntity
  8
0
100
AcDbLine
 62
7
  6
CONTINUOUS
 10
72.7496766137
 20
318.0634900439
 30
0.0
 11
80.9746766137
 21
318.0634900439
 31
0.0
  0
LINE
  5
2C6
100
AcDbEntity
  8
0
100
AcDbLine
 62
7
  6
CONTINUOUS
 10
100.9946772802
 20
344.5266442969
 30
0.0
 11
100.870921028
 21
344.6504005491
 31
0.0
  0
LINE
  5
2C7
100
AcDbEntity
  8
0
100
AcDbLine
 62
7
  6
CONTINUOUS
 10
72.7496766137
 20
328.7384900439
 30
0.0
 11
80.9746766137
 21
328.7384900439
 31
0.0
  0
LINE
  5
2C8
100
AcDbEntity
  8
0
100
AcDbLine
 62
7
  6
CONTINUOUS
 10
72.9246766137
 20
328.9134900439
 30
0.0
 11
80.7996766137
 21
328.9134900439
 31
0.0
  0
LINE
  5
2C9
100
AcDbEntity
  8
0
100
AcDbLine
 62
7
  6
CONTINUOUS
 10
72.9246766137
 20
329.2634900439
 30
0.0
 11
80.7996766137
 21
329.2634900439
 31
0.0
  0
LINE
  5
2CA
100
AcDbEntity
  8
0
100
AcDbLine
 62
7
  6
CONTINUOUS
 10
72.7496766137
 20
329.4384900439
 30
0.0
 11
80.9746766137
 21
329.4384900439
 31
0.0
  0
LINE
  5
2CB
100
AcDbEntity
  8
0
100
AcDbLine
 62
7
  6
CONTINUOUS
 10
104.8913036948
 20
341.9949505368
 30
0.0
 11
78.6897679165
 21
340.31564777
 31
0.0
  0
LINE
  5
2CC
100
AcDbEntity
  8
0
100
AcDbLine
 62
9
  6
CONTINUOUS
 10
76.8621766137
 20
341.5974897096
 30
0.0
 11
104.8845878385
 21
342.1739616378
 31
0.0
  0
LINE
  5
2CD
100
AcDbEntity
  8
0
100
AcDbLine
 62
7
  6
CONTINUOUS
 10
72.7496766137
 20
340.1134900439
 30
0.0
 11
80.9746766137
 21
340.1134900439
 31
0.0
  0
LINE
  5
2CE
100
AcDbEntity
  8
0
100
AcDbLine
 62
7
  6
CONTINUOUS
 10
72.9246766137
 20
340.2884900439
 30
0.0
 11
80.7996766137
 21
340.2884900439
 31
0.0
  0
LINE
  5
2CF
100
AcDbEntity
  8
0
100
AcDbLine
 62
9
  6
CONTINUOUS
 10
104.9895878385
 20
342.1739616378
 30
0.0
 11
104.8845878385
 21
342.1739616378
 31
0.0
  0
LINE
  5
2D0
100
AcDbEntity
  8
0
100
AcDbLine
 62
9
  6
CONTINUOUS
 10
48.8397653889
 20
342.1739616378
 30
0.0
 11
48.7347653889
 21
342.1739616378
 31
0.0
  0
LINE
  5
2D1
100
AcDbEntity
  8
0
100
AcDbLine
 62
7
  6
CONTINUOUS
 10
102.4715026349
 20
342.2090603261
 30
0.0
 11
100.5479460796
 21
342.2090603261
 31
0.0
  0
LINE
  5
2D2
100
AcDbEntity
  8
0
100
AcDbLine
 62
7
  6
CONTINUOUS
 10
53.1764071479
 20
342.2090603261
 30
0.0
 11
51.2528505926
 21
342.2090603261
 31
0.0
  0
LINE
  5
2D3
100
AcDbEntity
  8
0
100
AcDbLine
 62
7
  6
CONTINUOUS
 10
82.1726830336
 20
342.2569793985
 30
0.0
 11
80.5625764202
 21
342.2569793985
 31
0.0
  0
LINE
  5
2D4
100
AcDbEntity
  8
0
100
AcDbLine
 62
7
  6
CONTINUOUS
 10
71.5516701938
 20
342.2569793985
 30
0.0
 11
73.1617768072
 21
342.2569793985
 31
0.0
  0
LINE
  5
2D5
100
AcDbEntity
  8
0
100
AcDbLine
 62
7
  6
CONTINUOUS
 10
71.6521148926
 20
342.427397444
 30
0.0
 11
73.0613321084
 21
342.427397444
 31
0.0
  0
LINE
  5
2D6
100
AcDbEntity
  8
0
100
AcDbLine
 62
7
  6
CONTINUOUS
 10
82.071529218
 20
342.4281065608
 30
0.0
 11
80.6637302358
 21
342.4281065608
 31
0.0
  0
LINE
  5
2D7
100
AcDbEntity
  8
0
100
AcDbLine
 62
7
  6
CONTINUOUS
 10
71.6513731702
 20
342.4281065608
 30
0.0
 11
73.062042356
 21
342.4281065608
 31
0.0
  0
LINE
  5
2D8
100
AcDbEntity
  8
0
100
AcDbLine
 62
7
  6
CONTINUOUS
 10
102.2870115938
 20
342.4319793986
 30
0.0
 11
100.8374531151
 21
342.4319793986
 31
0.0
  0
LINE
  5
2D9
100
AcDbEntity
  8
0
100
AcDbLine
 62
7
  6
CONTINUOUS
 10
51.4373416336
 20
342.4319793986
 30
0.0
 11
52.8869001124
 21
342.4319793986
 31
0.0
  0
LINE
  5
2DA
100
AcDbEntity
  8
0
100
AcDbLine
 62
9
  6
CONTINUOUS
 10
51.4488055027
 20
342.5462932368
 30
0.0
 11
52.8754362434
 21
342.5462932368
 31
0.0
  0
LINE
  5
2DB
100
AcDbEntity
  8
0
100
AcDbLine
 62
9
  6
CONTINUOUS
 10
100.8489169841
 20
342.5462932368
 30
0.0
 11
102.2755477248
 21
342.5462932368
 31
0.0
  0
LINE
  5
2DC
100
AcDbEntity
  8
0
100
AcDbLine
 62
9
  6
CONTINUOUS
 10
71.5983842963
 20
342.6843119751
 30
0.0
 11
72.9929826918
 21
342.6843119751
 31
0.0
  0
LINE
  5
2DD
100
AcDbEntity
  8
0
100
AcDbLine
 62
9
  6
CONTINUOUS
 10
80.7313705356
 20
342.6843119751
 30
0.0
 11
82.1259689312
 21
342.6843119751
 31
0.0
  0
LINE
  5
2DE
100
AcDbEntity
  8
0
100
AcDbLine
 62
9
  6
CONTINUOUS
 10
82.1259689312
 20
342.8528967065
 30
0.0
 11
80.726946077
 21
342.8528967065
 31
0.0
  0
LINE
  5
2DF
100
AcDbEntity
  8
0
100
AcDbLine
 62
9
  6
CONTINUOUS
 10
72.9974071505
 20
342.8528967065
 30
0.0
 11
71.5983842963
 21
342.8528967065
 31
0.0
  0
LINE
  5
2E0
100
AcDbEntity
  8
0
100
AcDbLine
 62
9
  6
CONTINUOUS
 10
102.2721499956
 20
342.9958525205
 30
0.0
 11
100.8523147132
 21
342.9958525205
 31
0.0
  0
LINE
  5
2E1
100
AcDbEntity
  8
0
100
AcDbLine
 62
9
  6
CONTINUOUS
 10
52.8720385142
 20
342.9958525205
 30
0.0
 11
51.4522032318
 21
342.9958525205
 31
0.0
  0
LINE
  5
2E2
100
AcDbEntity
  8
0
100
AcDbLine
 62
7
  6
CONTINUOUS
 10
99.0466082102
 20
343.0276317582
 30
0.0
 11
96.0405931033
 21
343.0276317582
 31
0.0
  0
LINE
  5
2E3
100
AcDbEntity
  8
0
100
AcDbLine
 62
9
  6
CONTINUOUS
 10
51.4485408281
 20
343.0633463933
 30
0.0
 11
52.8757009179
 21
343.0633463933
 31
0.0
  0
LINE
  5
2E4
100
AcDbEntity
  8
0
100
AcDbLine
 62
9
  6
CONTINUOUS
 10
100.8486523096
 20
343.0633463933
 30
0.0
 11
102.2758123993
 21
343.0633463933
 31
0.0
  0
LINE
  5
2E5
100
AcDbEntity
  8
0
100
AcDbLine
 62
7
  6
CONTINUOUS
 10
82.1413084667
 20
343.1355866423
 30
0.0
 11
80.6204135276
 21
343.1355866423
 31
0.0
  0
LINE
  5
2E6
100
AcDbEntity
  8
0
100
AcDbLine
 62
7
  6
CONTINUOUS
 10
71.5830447608
 20
343.1355866422
 30
0.0
 11
73.1039396998
 21
343.1355866423
 31
0.0
  0
LINE
  5
2E7
100
AcDbEntity
  8
0
100
AcDbLine
 62
9
  6
CONTINUOUS
 10
102.2797323544
 20
343.2395735386
 30
0.0
 11
100.8447323544
 21
343.2395735386
 31
0.0
  0
LINE
  5
2E8
100
AcDbEntity
  8
0
100
AcDbLine
 62
9
  6
CONTINUOUS
 10
52.879620873
 20
343.2395735386
 30
0.0
 11
51.444620873
 21
343.2395735386
 31
0.0
  0
LINE
  5
2E9
100
AcDbEntity
  8
0
100
AcDbLine
 62
7
  6
CONTINUOUS
 10
60.240855321
 20
343.6061442968
 30
0.0
 11
59.610855321
 21
343.6061442968
 31
0.0
  0
LINE
  5
2EA
100
AcDbEntity
  8
0
100
AcDbLine
 62
7
  6
CONTINUOUS
 10
78.0696766137
 20
343.6061442969
 30
0.0
 11
78.8046766137
 21
343.6061442969
 31
0.0
  0
LINE
  5
2EB
100
AcDbEntity
  8
0
100
AcDbLine
 62
7
  6
CONTINUOUS
 10
71.3242048432
 20
343.857080957
 30
0.0
 11
71.3592421578
 21
343.857080957
 31
0.0
  0
LINE
  5
2EC
100
AcDbEntity
  8
0
100
AcDbLine
 62
7
  6
CONTINUOUS
 10
73.3542048432
 20
343.857080957
 30
0.0
 11
73.3892421578
 21
343.857080957
 31
0.0
  0
LINE
  5
2ED
100
AcDbEntity
  8
0
100
AcDbLine
 62
7
  6
CONTINUOUS
 10
80.3351110696
 20
343.857080957
 30
0.0
 11
80.3701483843
 21
343.857080957
 31
0.0
  0
LINE
  5
2EE
100
AcDbEntity
  8
0
100
AcDbLine
 62
7
  6
CONTINUOUS
 10
82.3651110696
 20
343.857080957
 30
0.0
 11
82.4001483843
 21
343.857080957
 31
0.0
  0
LINE
  5
2EF
100
AcDbEntity
  8
0
100
AcDbLine
 62
7
  6
CONTINUOUS
 10
60.2122718894
 20
343.8598907743
 30
0.0
 11
59.6394387527
 21
343.8598907743
 31
0.0
  0
LINE
  5
2F0
100
AcDbEntity
  8
0
100
AcDbLine
 62
7
  6
CONTINUOUS
 10
78.0871766137
 20
343.8598907743
 30
0.0
 11
78.7871766137
 21
343.8598907743
 31
0.0
  0
LINE
  5
2F1
100
AcDbEntity
  8
0
100
AcDbLine
 62
7
  6
CONTINUOUS
 10
78.7871766137
 20
343.9211442969
 30
0.0
 11
78.0871766137
 21
343.9211442969
 31
0.0
  0
LINE
  5
2F2
100
AcDbEntity
  8
0
100
AcDbLine
 62
7
  6
CONTINUOUS
 10
59.6372997325
 20
343.9211442968
 30
0.0
 11
60.2144109096
 21
343.9211442968
 31
0.0
  0
LINE
  5
2F3
100
AcDbEntity
  8
0
100
AcDbLine
 62
7
  6
CONTINUOUS
 10
53.0713911534
 20
343.962080957
 30
0.0
 11
52.879620873
 21
343.962080957
 31
0.0
  0
LINE
  5
2F4
100
AcDbEntity
  8
0
100
AcDbLine
 62
7
  6
CONTINUOUS
 10
51.444620873
 20
343.9620809569
 30
0.0
 11
51.2528505926
 21
343.9620809569
 31
0.0
  0
LINE
  5
2F5
100
AcDbEntity
  8
0
100
AcDbLine
 62
7
  6
CONTINUOUS
 10
100.652962074
 20
343.962080957
 30
0.0
 11
100.8447323544
 21
343.962080957
 31
0.0
  0
LINE
  5
2F6
100
AcDbEntity
  8
0
100
AcDbLine
 62
7
  6
CONTINUOUS
 10
102.2797323544
 20
343.9620809569
 30
0.0
 11
102.4715026349
 21
343.9620809569
 31
0.0
  0
LINE
  5
2F7
100
AcDbEntity
  8
0
100
AcDbLine
 62
7
  6
CONTINUOUS
 10
78.7871766137
 20
344.0261442969
 30
0.0
 11
78.0871766137
 21
344.0261442969
 31
0.0
  0
LINE
  5
2F8
100
AcDbEntity
  8
0
100
AcDbLine
 62
7
  6
CONTINUOUS
 10
60.2180775904
 20
344.0261442968
 30
0.0
 11
59.6336330517
 21
344.0261442968
 31
0.0
  0
LINE
  5
2F9
100
AcDbEntity
  8
0
100
AcDbLine
 62
7
  6
CONTINUOUS
 10
78.8046766137
 20
344.0611442969
 30
0.0
 11
78.0696766137
 21
344.0611442969
 31
0.0
  0
LINE
  5
2FA
100
AcDbEntity
  8
0
100
AcDbLine
 62
7
  6
CONTINUOUS
 10
59.610855321
 20
344.0611442968
 30
0.0
 11
60.240855321
 21
344.0611442968
 31
0.0
  0
LINE
  5
2FB
100
AcDbEntity
  8
0
100
AcDbLine
 62
7
  6
CONTINUOUS
 10
48.8366303514
 20
344.3166442968
 30
0.0
 11
96.0293440613
 21
344.3166442968
 31
0.0
  0
LINE
  5
2FC
100
AcDbEntity
  8
0
100
AcDbLine
 62
7
  6
CONTINUOUS
 10
99.0578572522
 20
344.3166442969
 30
0.0
 11
104.887722876
 21
344.3166442969
 31
0.0
  0
LINE
  5
2FD
100
AcDbEntity
  8
0
100
AcDbLine
 62
7
  6
CONTINUOUS
 10
96.2072818143
 20
344.3226317582
 30
0.0
 11
98.879654776
 21
344.3226317582
 31
0.0
  0
LINE
  5
2FE
100
AcDbEntity
  8
0
100
AcDbLine
 62
7
  6
CONTINUOUS
 10
96.0290386209
 20
344.3516442968
 30
0.0
 11
96.2072818143
 21
344.3516442968
 31
0.0
  0
LINE
  5
2FF
100
AcDbEntity
  8
0
100
AcDbLine
 62
7
  6
CONTINUOUS
 10
98.879654776
 20
344.3516442968
 30
0.0
 11
99.0581626926
 21
344.3516442968
 31
0.0
  0
LINE
  5
300
100
AcDbEntity
  8
0
100
AcDbLine
 62
7
  6
CONTINUOUS
 10
98.6993931496
 20
344.404144297
 30
0.0
 11
96.3875434407
 21
344.404144297
 31
0.0
  0
LINE
  5
301
100
AcDbEntity
  8
0
100
AcDbLine
 62
7
  6
CONTINUOUS
 10
96.027511419
 20
344.509144297
 30
0.0
 11
99.0596898944
 21
344.509144297
 31
0.0
  0
LINE
  5
302
100
AcDbEntity
  8
0
100
AcDbLine
 62
7
  6
CONTINUOUS
 10
104.835222876
 20
344.5231442969
 30
0.0
 11
104.8860755576
 21
344.5231442969
 31
0.0
  0
LINE
  5
303
100
AcDbEntity
  8
0
100
AcDbLine
 62
7
  6
CONTINUOUS
 10
48.7872653889
 20
344.5266442968
 30
0.0
 11
96.027511419
 21
344.5266442968
 31
0.0
  0
LINE
  5
304
100
AcDbEntity
  8
0
100
AcDbLine
 62
7
  6
CONTINUOUS
 10
99.0596898944
 20
344.5266442969
 30
0.0
 11
104.9370878385
 21
344.5266442969
 31
0.0
  0
LINE
  5
305
100
AcDbEntity
  8
0
100
AcDbLine
 62
7
  6
CONTINUOUS
 10
100.870921028
 20
344.6504005491
 30
0.0
 11
52.8534321994
 21
344.650400549
 31
0.0
  0
LINE
  5
306
100
AcDbEntity
  8
0
100
AcDbLine
 62
9
  6
CONTINUOUS
 10
48.8397653889
 20
342.1739616378
 30
0.0
 11
76.8621766137
 21
341.5974897096
 31
0.0
  0
LINE
  5
307
100
AcDbEntity
  8
0
100
AcDbLine
 62
7
  6
CONTINUOUS
 10
75.034585311
 20
340.31564777
 30
0.0
 11
48.8330495326
 21
341.9949505368
 31
0.0
  0
LINE
  5
308
100
AcDbEntity
  8
PORTALENTE
100
AcDbLine
 62
7
  6
CONTINUOUS
 10
214.3840938451
 20
68.1284900438
 30
0.0
 11
188.8413320001
 21
68.1284900438
 31
0.0
  0
LINE
  5
309
100
AcDbEntity
  8
PORTALENTE
100
AcDbLine
 62
9
  6
CONTINUOUS
 10
214.7145761641
 20
68.3632449274
 30
0.0
 11
188.5108496812
 21
68.3632449274
 31
0.0
  0
LINE
  5
30A
100
AcDbEntity
  8
CAPPELLO
100
AcDbLine
 62
7
  6
CONTINUOUS
 10
236.4895305119
 20
70.1938288701
 30
0.0
 11
166.7358953334
 21
70.1938288701
 31
0.0
  0
LINE
  5
30B
100
AcDbEntity
  8
CAPPELLO
100
AcDbLine
 62
7
  6
CONTINUOUS
 10
236.6127129226
 20
70.7041729635
 30
0.0
 11
166.6127129226
 21
70.7041729635
 31
0.0
  0
LINE
  5
30C
100
AcDbEntity
  8
CAPPELLO
100
AcDbLine
 62
9
  6
CONTINUOUS
 10
216.0841516137
 20
75.6591782306
 30
0.0
 11
187.1412742316
 21
75.6591782306
 31
0.0
  0
LINE
  5
30D
100
AcDbEntity
  8
CAPPELLO
100
AcDbLine
 62
7
  6
CONTINUOUS
 10
215.8377867922
 20
75.6884900438
 30
0.0
 11
187.3876390531
 21
75.6884900438
 31
0.0
  0
LINE
  5
30E
100
AcDbEntity
  8
COPERTURA
100
AcDbLine
 62
7
  6
CONTINUOUS
 10
199.8627129226
 20
76.5634900438
 30
0.0
 11
203.3627129226
 21
76.5634900438
 31
0.0
  0
LINE
  5
30F
100
AcDbEntity
  8
ALL_FEATURES
100
AcDbLine
 62
7
  6
CONTINUOUS
 10
201.6127129226
 20
339.4676352324
 30
0.0
 11
201.2627129226
 21
339.2655626381
 31
0.0
  0
LINE
  5
310
100
AcDbEntity
  8
ALL_FEATURES
100
AcDbLine
 62
7
  6
CONTINUOUS
 10
201.6127129226
 20
338.6593448555
 30
0.0
 11
201.9627129226
 21
338.8614174497
 31
0.0
  0
LINE
  5
311
100
AcDbEntity
  8
0
100
AcDbLine
 62
7
  6
CONTINUOUS
 10
203.806096496
 20
342.6843119751
 30
0.0
 11
203.7208154903
 21
342.639744743
 31
0.0
  0
LINE
  5
312
100
AcDbEntity
  8
0
100
AcDbLine
 62
7
  6
CONTINUOUS
 10
203.5377129226
 20
342.5045655203
 30
0.0
 11
203.617560413
 21
342.5462932368
 31
0.0
  0
LINE
  5
313
100
AcDbEntity
  8
CAPPELLO
100
AcDbLine
 62
7
  6
CONTINUOUS
 10
187.1412742316
 20
75.6591782306
 30
0.0
 11
166.6127129226
 21
70.7041729635
 31
0.0
  0
LINE
  5
314
100
AcDbEntity
  8
TUBETTO
100
AcDbLine
 62
7
  6
CONTINUOUS
 10
200.5627129226
 20
86.3634900438
 30
0.0
 11
202.6627129226
 21
86.3634900438
 31
0.0
  0
LINE
  5
315
100
AcDbEntity
  8
CAPPELLO
100
AcDbLine
 62
7
  6
CONTINUOUS
 10
216.0841516137
 20
75.6591782306
 30
0.0
 11
236.6127129226
 21
70.7041729635
 31
0.0
  0
LINE
  5
316
100
AcDbEntity
  8
0
100
AcDbLine
 62
7
  6
CONTINUOUS
 10
197.6752129228
 20
340.2884900441
 30
0.0
 11
197.5002129228
 21
340.1134900441
 31
0.0
  0
LINE
  5
317
100
AcDbEntity
  8
0
100
AcDbLine
 62
7
  6
CONTINUOUS
 10
199.3950171489
 20
342.8528967065
 30
0.0
 11
199.6129157231
 21
343.0633463933
 31
0.0
  0
LINE
  5
318
100
AcDbEntity
  8
ALL_FEATURES
100
AcDbLine
 62
7
  6
CONTINUOUS
 10
201.6127129226
 20
318.8915989352
 30
0.0
 11
201.3502129226
 21
318.7400444896
 31
0.0
  0
LINE
  5
319
100
AcDbEntity
  8
ALL_FEATURES
100
AcDbLine
 62
7
  6
CONTINUOUS
 10
201.6127129226
 20
318.2853811526
 30
0.0
 11
201.8752129226
 21
318.4369355983
 31
0.0
  0
LINE
  5
31A
100
AcDbEntity
  8
0
100
AcDbLine
 62
7
  6
CONTINUOUS
 10
197.6752129228
 20
328.9134900441
 30
0.0
 11
197.5002129228
 21
328.7384900441
 31
0.0
  0
LINE
  5
31B
100
AcDbEntity
  8
0
100
AcDbLine
 62
7
  6
CONTINUOUS
 10
205.7252129225
 20
329.4384900437
 30
0.0
 11
205.5502129225
 21
329.2634900437
 31
0.0
  0
LINE
  5
31C
100
AcDbEntity
  8
0
100
AcDbLine
 62
9
  6
CONTINUOUS
 10
202.2173078533
 20
340.31564777
 30
0.0
 11
203.3584324691
 21
341.9949505368
 31
0.0
  0
LINE
  5
31D
100
AcDbEntity
  8
0
100
AcDbLine
 62
7
  6
CONTINUOUS
 10
197.6752129226
 20
317.5384900439
 30
0.0
 11
197.5002129226
 21
317.3634900439
 31
0.0
  0
LINE
  5
31E
100
AcDbEntity
  8
0
100
AcDbLine
 62
7
  6
CONTINUOUS
 10
205.7252129225
 20
318.0634900437
 30
0.0
 11
205.5502129225
 21
317.8884900437
 31
0.0
  0
LINE
  5
31F
100
AcDbEntity
  8
0
100
AcDbLine
 62
7
  6
CONTINUOUS
 10
205.5502129226
 20
316.8384900439
 30
0.0
 11
205.7252129226
 21
317.0134900439
 31
0.0
  0
LWPOLYLINE
  5
320
100
AcDbEntity
  8
TUBETTO
100
AcDbPolyline
 62
7
  6
CONTINUOUS
 90
4
 70
0
 10
202.6627129226
 20
79.0134900438
 10
202.661550493
 20
79.0149594893
 10
202.6580237041
 20
79.0203118608
 10
202.6580187969
 20
79.020319482
  0
LINE
  5
321
100
AcDbEntity
  8
TUBETTO
100
AcDbLine
 62
7
  6
CONTINUOUS
 10
202.6627129226
 20
79.0134900438
 30
0.0
 11
202.6580085723
 21
79.0205612783
 31
0.0
  0
LINE
  5
322
100
AcDbEntity
  8
CAPPELLO
100
AcDbLine
 62
7
  6
CONTINUOUS
 10
166.6127129226
 20
70.7041729635
 30
0.0
 11
166.7358953334
 21
70.1938288701
 31
0.0
  0
LINE
  5
323
100
AcDbEntity
  8
PORTALENTE
100
AcDbLine
 62
7
  6
CONTINUOUS
 10
187.8724922037
 20
70.1938288701
 30
0.0
 11
188.5108496812
 21
68.3632449274
 31
0.0
  0
LINE
  5
324
100
AcDbEntity
  8
0
100
AcDbLine
 62
7
  6
CONTINUOUS
 10
199.6877129226
 20
344.3166442968
 30
0.0
 11
199.7402129226
 21
344.5266442968
 31
0.0
  0
LINE
  5
325
100
AcDbEntity
  8
0
100
AcDbLine
 62
9
  6
CONTINUOUS
 10
199.8420778852
 20
344.5266442968
 30
0.0
 11
199.7895778852
 21
344.3166442968
 31
0.0
  0
LINE
  5
326
100
AcDbEntity
  8
0
100
AcDbLine
 62
7
  6
CONTINUOUS
 10
200.0783027018
 20
341.8810467499
 30
0.0
 11
200.0629513995
 21
343.6401317581
 31
0.0
  0
LINE
  5
327
100
AcDbEntity
  8
0
100
AcDbLine
 62
7
  6
CONTINUOUS
 10
197.5002129226
 20
317.3634900439
 30
0.0
 11
197.5002129226
 21
317.0134900439
 31
0.0
  0
LINE
  5
328
100
AcDbEntity
  8
0
100
AcDbLine
 62
7
  6
CONTINUOUS
 10
197.5002129226
 20
318.0634900439
 30
0.0
 11
197.5002129226
 21
328.7384900439
 31
0.0
  0
LINE
  5
329
100
AcDbEntity
  8
0
100
AcDbLine
 62
7
  6
CONTINUOUS
 10
197.5002129226
 20
329.4384900439
 30
0.0
 11
197.5002129226
 21
340.1134900439
 31
0.0
  0
LINE
  5
32A
100
AcDbEntity
  8
0
100
AcDbLine
 62
7
  6
CONTINUOUS
 10
197.6752129226
 20
317.5384900439
 30
0.0
 11
197.6752129226
 21
317.8884900439
 31
0.0
  0
LINE
  5
32B
100
AcDbEntity
  8
0
100
AcDbLine
 62
7
  6
CONTINUOUS
 10
197.6752129226
 20
328.9134900439
 30
0.0
 11
197.6752129226
 21
329.2634900439
 31
0.0
  0
LINE
  5
32C
100
AcDbEntity
  8
0
100
AcDbLine
 62
7
  6
CONTINUOUS
 10
199.6877129226
 20
340.2884900439
 30
0.0
 11
199.6877129226
 21
344.3166442968
 31
0.0
  0
LINE
  5
32D
100
AcDbEntity
  8
0
100
AcDbLine
 62
9
  6
CONTINUOUS
 10
199.7927129226
 20
342.1739497025
 30
0.0
 11
199.7927129226
 21
344.3166442968
 31
0.0
  0
LINE
  5
32E
100
AcDbEntity
  8
COPERTURA
100
AcDbLine
 62
7
  6
CONTINUOUS
 10
199.8627129226
 20
75.6884900438
 30
0.0
 11
199.8627129226
 21
76.5634900438
 31
0.0
  0
LINE
  5
32F
100
AcDbEntity
  8
0
100
AcDbLine
 62
9
  6
CONTINUOUS
 10
199.8669933762
 20
341.9949505368
 30
0.0
 11
199.8669933762
 21
342.0997355418
 31
0.0
  0
LINE
  5
330
100
AcDbEntity
  8
0
100
AcDbLine
 62
7
  6
CONTINUOUS
 10
200.1077129226
 20
341.8810467498
 30
0.0
 11
200.1077129226
 21
343.6051317581
 31
0.0
  0
LINE
  5
331
100
AcDbEntity
  8
TUBETTO
100
AcDbLine
 62
7
  6
CONTINUOUS
 10
200.5627129226
 20
76.5634900438
 30
0.0
 11
200.5627129226
 21
86.3634900438
 31
0.0
  0
LINE
  5
332
100
AcDbEntity
  8
0
100
AcDbLine
 62
7
  6
CONTINUOUS
 10
200.685190164
 20
344.5266442968
 30
0.0
 11
200.685190164
 21
344.650400549
 31
0.0
  0
LINE
  5
333
100
AcDbEntity
  8
COASSIALE
100
AcDbLine
 62
6
  6
CONTINUOUS
 10
201.088229271
 20
86.3634900438
 30
0.0
 11
201.088229271
 21
316.8384900439
 31
0.0
  0
LINE
  5
334
100
AcDbEntity
  8
ALL_FEATURES
100
AcDbLine
 62
7
  6
CONTINUOUS
 10
201.2627129226
 20
339.2655626381
 30
0.0
 11
201.2627129226
 21
338.8614174497
 31
0.0
  0
LINE
  5
335
100
AcDbEntity
  8
ALL_FEATURES
100
AcDbLine
 62
7
  6
CONTINUOUS
 10
201.3502129226
 20
318.7400444896
 30
0.0
 11
201.3502129226
 21
318.4369355983
 31
0.0
  0
LINE
  5
336
100
AcDbEntity
  8
ALL_FEATURES
100
AcDbLine
 62
7
  6
CONTINUOUS
 10
201.8752129226
 20
318.4369355983
 30
0.0
 11
201.8752129226
 21
318.7400444896
 31
0.0
  0
LINE
  5
337
100
AcDbEntity
  8
ALL_FEATURES
100
AcDbLine
 62
7
  6
CONTINUOUS
 10
201.9627129226
 20
338.8614174497
 30
0.0
 11
201.9627129226
 21
339.2655626381
 31
0.0
  0
LINE
  5
338
100
AcDbEntity
  8
COASSIALE
100
AcDbLine
 62
6
  6
CONTINUOUS
 10
202.1371965742
 20
86.3634900438
 30
0.0
 11
202.1371965742
 21
316.8384900439
 31
0.0
  0
LINE
  5
339
100
AcDbEntity
  8
TUBETTO
100
AcDbLine
 62
7
  6
CONTINUOUS
 10
202.3953367148
 20
79.7134900438
 30
0.0
 11
202.3953367148
 21
81.8134900438
 31
0.0
  0
LINE
  5
33A
100
AcDbEntity
  8
0
100
AcDbLine
 62
7
  6
CONTINUOUS
 10
202.5402356813
 20
344.650400549
 30
0.0
 11
202.5402356813
 21
344.5266442968
 31
0.0
  0
LINE
  5
33B
100
AcDbEntity
  8
TUBETTO
100
AcDbLine
 62
7
  6
CONTINUOUS
 10
202.6627129226
 20
76.5634900438
 30
0.0
 11
202.6627129226
 21
79.0134900438
 31
0.0
  0
LINE
  5
33C
100
AcDbEntity
  8
TUBETTO
100
AcDbLine
 62
7
  6
CONTINUOUS
 10
202.6627129226
 20
82.5134900438
 30
0.0
 11
202.6627129226
 21
86.3634900438
 31
0.0
  0
LINE
  5
33D
100
AcDbEntity
  8
0
100
AcDbLine
 62
7
  6
CONTINUOUS
 10
203.1471231435
 20
341.8810467499
 30
0.0
 11
203.1624744458
 21
343.6401317581
 31
0.0
  0
LINE
  5
33E
100
AcDbEntity
  8
0
100
AcDbLine
 62
7
  6
CONTINUOUS
 10
199.3629612063
 20
342.7773707871
 30
0.0
 11
199.3631928939
 21
342.7843422087
 31
0.0
  0
LINE
  5
33F
100
AcDbEntity
  8
0
100
AcDbLine
 62
7
  6
CONTINUOUS
 10
200.5479829026
 20
341.9452964107
 30
0.0
 11
200.5466945566
 21
341.908403009
 31
0.0
  0
LINE
  5
340
100
AcDbEntity
  8
0
100
AcDbLine
 62
9
  6
CONTINUOUS
 10
200.6507880415
 20
341.961045697
 30
0.0
 11
200.6485644648
 21
341.8973707924
 31
0.0
  0
LINE
  5
341
100
AcDbEntity
  8
0
100
AcDbLine
 62
9
  6
CONTINUOUS
 10
202.5768613805
 20
341.8973707924
 30
0.0
 11
202.5746378049
 21
341.9610456651
 31
0.0
  0
LINE
  5
342
100
AcDbEntity
  8
0
100
AcDbLine
 62
7
  6
CONTINUOUS
 10
202.6787312887
 20
341.908403009
 30
0.0
 11
202.6774429427
 21
341.9452964107
 31
0.0
  0
LINE
  5
343
100
AcDbEntity
  8
0
100
AcDbLine
 62
7
  6
CONTINUOUS
 10
203.8622329517
 20
342.7843422051
 30
0.0
 11
203.862464639
 21
342.7773707871
 31
0.0
  0
LINE
  5
344
100
AcDbEntity
  8
0
100
AcDbLine
 62
7
  6
CONTINUOUS
 10
203.1177129226
 20
343.6051317581
 30
0.0
 11
203.1177129226
 21
341.8810467498
 31
0.0
  0
LINE
  5
345
100
AcDbEntity
  8
0
100
AcDbLine
 62
9
  6
CONTINUOUS
 10
203.3584324691
 20
342.0997355418
 30
0.0
 11
203.3584324691
 21
341.9949505368
 31
0.0
  0
LINE
  5
346
100
AcDbEntity
  8
COPERTURA
100
AcDbLine
 62
7
  6
CONTINUOUS
 10
203.3627129226
 20
75.6884900438
 30
0.0
 11
203.3627129226
 21
76.5634900438
 31
0.0
  0
LINE
  5
347
100
AcDbEntity
  8
0
100
AcDbLine
 62
9
  6
CONTINUOUS
 10
203.4327129226
 20
344.3166442968
 30
0.0
 11
203.4327129226
 21
342.1739497373
 31
0.0
  0
LINE
  5
348
100
AcDbEntity
  8
0
100
AcDbLine
 62
7
  6
CONTINUOUS
 10
203.5377129226
 20
340.2884900439
 30
0.0
 11
203.5377129226
 21
344.3166442968
 31
0.0
  0
LINE
  5
349
100
AcDbEntity
  8
0
100
AcDbLine
 62
7
  6
CONTINUOUS
 10
205.5502129226
 20
317.5384900439
 30
0.0
 11
205.5502129226
 21
317.8884900439
 31
0.0
  0
LINE
  5
34A
100
AcDbEntity
  8
0
100
AcDbLine
 62
7
  6
CONTINUOUS
 10
205.5502129226
 20
328.9134900439
 30
0.0
 11
205.5502129226
 21
329.2634900439
 31
0.0
  0
LINE
  5
34B
100
AcDbEntity
  8
0
100
AcDbLine
 62
7
  6
CONTINUOUS
 10
205.7252129226
 20
317.3634900439
 30
0.0
 11
205.7252129226
 21
317.0134900439
 31
0.0
  0
LINE
  5
34C
100
AcDbEntity
  8
0
100
AcDbLine
 62
7
  6
CONTINUOUS
 10
205.7252129226
 20
318.0634900439
 30
0.0
 11
205.7252129226
 21
328.7384900439
 31
0.0
  0
LINE
  5
34D
100
AcDbEntity
  8
0
100
AcDbLine
 62
7
  6
CONTINUOUS
 10
205.7252129226
 20
329.4384900439
 30
0.0
 11
205.7252129226
 21
340.1134900439
 31
0.0
  0
LINE
  5
34E
100
AcDbEntity
  8
0
100
AcDbLine
 62
9
  6
CONTINUOUS
 10
203.4358479601
 20
344.3166442968
 30
0.0
 11
203.3833479601
 21
344.5266442968
 31
0.0
  0
LINE
  5
34F
100
AcDbEntity
  8
0
100
AcDbLine
 62
7
  6
CONTINUOUS
 10
203.4852129226
 20
344.5266442968
 30
0.0
 11
203.5377129226
 21
344.3166442968
 31
0.0
  0
LINE
  5
350
100
AcDbEntity
  8
PORTALENTE
100
AcDbLine
 62
7
  6
CONTINUOUS
 10
215.3529336415
 20
70.1938288701
 30
0.0
 11
214.7145761641
 21
68.3632449274
 31
0.0
  0
LINE
  5
351
100
AcDbEntity
  8
CAPPELLO
100
AcDbLine
 62
7
  6
CONTINUOUS
 10
236.6127129226
 20
70.7041729635
 30
0.0
 11
236.4895305119
 21
70.1938288701
 31
0.0
  0
LINE
  5
352
100
AcDbEntity
  8
TUBETTO
100
AcDbLine
 62
7
  6
CONTINUOUS
 10
202.6511832947
 20
82.4960549904
 30
0.0
 11
202.6579468631
 21
82.5065547359
 31
0.0
  0
LWPOLYLINE
  5
353
100
AcDbEntity
  8
TUBETTO
100
AcDbPolyline
 62
7
  6
CONTINUOUS
 90
3
 70
0
 10
202.6579468631
 20
82.5065547359
 10
202.6615311819
 20
82.5119941633
 10
202.6627129226
 20
82.5134900438
  0
LINE
  5
354
100
AcDbEntity
  8
TUBETTO
100
AcDbLine
 62
7
  6
CONTINUOUS
 10
202.6512746229
 20
82.4962128761
 30
0.0
 11
202.6627129226
 21
82.5134900438
 31
0.0
  0
LINE
  5
355
100
AcDbEntity
  8
0
100
AcDbLine
 62
7
  6
CONTINUOUS
 10
197.6752129226
 20
316.8384900439
 30
0.0
 11
197.5002129226
 21
317.0134900439
 31
0.0
  0
LINE
  5
356
100
AcDbEntity
  8
0
100
AcDbLine
 62
7
  6
CONTINUOUS
 10
197.5002129228
 20
318.0634900437
 30
0.0
 11
197.6752129228
 21
317.8884900437
 31
0.0
  0
LINE
  5
357
100
AcDbEntity
  8
0
100
AcDbLine
 62
9
  6
CONTINUOUS
 10
199.8669933762
 20
341.9949505368
 30
0.0
 11
201.008117992
 21
340.31564777
 31
0.0
  0
LINE
  5
358
100
AcDbEntity
  8
0
100
AcDbLine
 62
7
  6
CONTINUOUS
 10
205.5502129226
 20
317.5384900439
 30
0.0
 11
205.7252129226
 21
317.3634900439
 31
0.0
  0
LINE
  5
359
100
AcDbEntity
  8
0
100
AcDbLine
 62
7
  6
CONTINUOUS
 10
197.5002129228
 20
329.4384900437
 30
0.0
 11
197.6752129228
 21
329.2634900437
 31
0.0
  0
LINE
  5
35A
100
AcDbEntity
  8
0
100
AcDbLine
 62
7
  6
CONTINUOUS
 10
205.5502129225
 20
328.9134900441
 30
0.0
 11
205.7252129225
 21
328.7384900441
 31
0.0
  0
LINE
  5
35B
100
AcDbEntity
  8
ALL_FEATURES
100
AcDbLine
 62
7
  6
CONTINUOUS
 10
201.3502129226
 20
318.4369355983
 30
0.0
 11
201.6127129226
 21
318.2853811526
 31
0.0
  0
LINE
  5
35C
100
AcDbEntity
  8
ALL_FEATURES
100
AcDbLine
 62
7
  6
CONTINUOUS
 10
201.8752129226
 20
318.7400444896
 30
0.0
 11
201.6127129226
 21
318.8915989352
 31
0.0
  0
LINE
  5
35D
100
AcDbEntity
  8
0
100
AcDbLine
 62
7
  6
CONTINUOUS
 10
203.8304086964
 20
342.8528967065
 30
0.0
 11
203.6125101222
 21
343.0633463933
 31
0.0
  0
LINE
  5
35E
100
AcDbEntity
  8
0
100
AcDbLine
 62
7
  6
CONTINUOUS
 10
205.5502129225
 20
340.2884900441
 30
0.0
 11
205.7252129225
 21
340.1134900441
 31
0.0
  0
LINE
  5
35F
100
AcDbEntity
  8
0
100
AcDbLine
 62
7
  6
CONTINUOUS
 10
205.5502129226
 20
316.8384900439
 30
0.0
 11
197.6752129226
 21
316.8384900439
 31
0.0
  0
LINE
  5
360
100
AcDbEntity
  8
0
100
AcDbLine
 62
7
  6
CONTINUOUS
 10
205.7252129226
 20
317.0134900439
 30
0.0
 11
197.5002129226
 21
317.0134900439
 31
0.0
  0
LINE
  5
361
100
AcDbEntity
  8
0
100
AcDbLine
 62
7
  6
CONTINUOUS
 10
197.5002129226
 20
317.3634900439
 30
0.0
 11
205.7252129226
 21
317.3634900439
 31
0.0
  0
LINE
  5
362
100
AcDbEntity
  8
0
100
AcDbLine
 62
7
  6
CONTINUOUS
 10
205.5502129226
 20
317.5384900439
 30
0.0
 11
197.6752129226
 21
317.5384900439
 31
0.0
  0
LINE
  5
363
100
AcDbEntity
  8
0
100
AcDbLine
 62
7
  6
CONTINUOUS
 10
197.6752129226
 20
317.8884900439
 30
0.0
 11
205.5502129226
 21
317.8884900439
 31
0.0
  0
LINE
  5
364
100
AcDbEntity
  8
0
100
AcDbLine
 62
7
  6
CONTINUOUS
 10
197.5002129226
 20
318.0634900439
 30
0.0
 11
205.7252129226
 21
318.0634900439
 31
0.0
  0
LINE
  5
365
100
AcDbEntity
  8
ALL_FEATURES
100
AcDbLine
 62
7
  6
CONTINUOUS
 10
201.2627129226
 20
338.8614174497
 30
0.0
 11
201.6127129226
 21
338.6593448555
 31
0.0
  0
LINE
  5
366
100
AcDbEntity
  8
0
100
AcDbLine
 62
7
  6
CONTINUOUS
 10
197.5002129226
 20
328.7384900439
 30
0.0
 11
205.7252129226
 21
328.7384900439
 31
0.0
  0
LINE
  5
367
100
AcDbEntity
  8
0
100
AcDbLine
 62
7
  6
CONTINUOUS
 10
197.6752129226
 20
328.9134900439
 30
0.0
 11
205.5502129226
 21
328.9134900439
 31
0.0
  0
LINE
  5
368
100
AcDbEntity
  8
0
100
AcDbLine
 62
7
  6
CONTINUOUS
 10
197.6752129226
 20
329.2634900439
 30
0.0
 11
205.5502129226
 21
329.2634900439
 31
0.0
  0
LINE
  5
369
100
AcDbEntity
  8
0
100
AcDbLine
 62
7
  6
CONTINUOUS
 10
197.5002129226
 20
329.4384900439
 30
0.0
 11
205.7252129226
 21
329.4384900439
 31
0.0
  0
LINE
  5
36A
100
AcDbEntity
  8
0
100
AcDbLine
 62
7
  6
CONTINUOUS
 10
199.6877129226
 20
342.5045655203
 30
0.0
 11
199.6078654323
 21
342.5462932368
 31
0.0
  0
LINE
  5
36B
100
AcDbEntity
  8
0
100
AcDbLine
 62
7
  6
CONTINUOUS
 10
199.5045504684
 20
342.6397760393
 30
0.0
 11
199.4193293493
 21
342.6843119751
 31
0.0
  0
LINE
  5
36C
100
AcDbEntity
  8
ALL_FEATURES
100
AcDbLine
 62
7
  6
CONTINUOUS
 10
201.9627129226
 20
339.2655626381
 30
0.0
 11
201.6127129226
 21
339.4676352324
 31
0.0
  0
LINE
  5
36D
100
AcDbEntity
  8
0
100
AcDbLine
 62
7
  6
CONTINUOUS
 10
197.5002129226
 20
340.1134900439
 30
0.0
 11
205.7252129226
 21
340.1134900439
 31
0.0
  0
LINE
  5
36E
100
AcDbEntity
  8
0
100
AcDbLine
 62
7
  6
CONTINUOUS
 10
197.6752129226
 20
340.2884900439
 30
0.0
 11
205.5502129226
 21
340.2884900439
 31
0.0
  0
LINE
  5
36F
100
AcDbEntity
  8
0
100
AcDbLine
 62
7
  6
CONTINUOUS
 10
200.0783027018
 20
341.8810467499
 30
0.0
 11
200.1077129226
 21
341.8810467499
 31
0.0
  0
LINE
  5
370
100
AcDbEntity
  8
0
100
AcDbLine
 62
7
  6
CONTINUOUS
 10
203.1177129226
 20
341.8810467499
 30
0.0
 11
203.1471231435
 21
341.8810467499
 31
0.0
  0
LINE
  5
371
100
AcDbEntity
  8
0
100
AcDbLine
 62
7
  6
CONTINUOUS
 10
200.6485644648
 20
341.8973707924
 30
0.0
 11
202.5768613805
 21
341.8973707924
 31
0.0
  0
LINE
  5
372
100
AcDbEntity
  8
0
100
AcDbLine
 62
7
  6
CONTINUOUS
 10
202.3270888984
 20
341.967643225
 30
0.0
 11
200.8983369469
 21
341.967643225
 31
0.0
  0
LINE
  5
373
100
AcDbEntity
  8
0
100
AcDbLine
 62
9
  6
CONTINUOUS
 10
199.8669933762
 20
341.9949505368
 30
0.0
 11
200.0773086785
 21
341.9949505368
 31
0.0
  0
LINE
  5
374
100
AcDbEntity
  8
0
100
AcDbLine
 62
9
  6
CONTINUOUS
 10
200.1077129226
 20
341.9949505368
 30
0.0
 11
203.1177129226
 21
341.9949505368
 31
0.0
  0
LINE
  5
375
100
AcDbEntity
  8
0
100
AcDbLine
 62
9
  6
CONTINUOUS
 10
203.1481171668
 20
341.9949505368
 30
0.0
 11
203.3584324691
 21
341.9949505368
 31
0.0
  0
LINE
  5
376
100
AcDbEntity
  8
0
100
AcDbLine
 62
9
  6
CONTINUOUS
 10
203.3584275288
 20
342.0997355418
 30
0.0
 11
203.1490316117
 21
342.0997355418
 31
0.0
  0
LINE
  5
377
100
AcDbEntity
  8
0
100
AcDbLine
 62
9
  6
CONTINUOUS
 10
200.0763942336
 20
342.0997355418
 30
0.0
 11
199.8669983414
 21
342.0997355418
 31
0.0
  0
LINE
  5
378
100
AcDbEntity
  8
0
100
AcDbLine
 62
9
  6
CONTINUOUS
 10
203.1177129226
 20
342.0997355417
 30
0.0
 11
200.1077129226
 21
342.0997355417
 31
0.0
  0
LINE
  5
379
100
AcDbEntity
  8
0
100
AcDbLine
 62
9
  6
CONTINUOUS
 10
203.5377129226
 20
342.1739616378
 30
0.0
 11
203.4327129226
 21
342.1739616378
 31
0.0
  0
LINE
  5
37A
100
AcDbEntity
  8
0
100
AcDbLine
 62
9
  6
CONTINUOUS
 10
199.7927129226
 20
342.1739616378
 30
0.0
 11
199.6877129226
 21
342.1739616378
 31
0.0
  0
LINE
  5
37B
100
AcDbEntity
  8
0
100
AcDbLine
 62
7
  6
CONTINUOUS
 10
200.0754401707
 20
342.2090603261
 30
0.0
 11
200.1077129226
 21
342.2090603261
 31
0.0
  0
LINE
  5
37C
100
AcDbEntity
  8
0
100
AcDbLine
 62
7
  6
CONTINUOUS
 10
203.1177129226
 20
342.2090603261
 30
0.0
 11
203.1499856746
 21
342.2090603261
 31
0.0
  0
LINE
  5
37D
100
AcDbEntity
  8
0
100
AcDbLine
 62
7
  6
CONTINUOUS
 10
200.1077129226
 20
343.6051317581
 30
0.0
 11
203.1177129226
 21
343.6051317581
 31
0.0
  0
LINE
  5
37E
100
AcDbEntity
  8
0
100
AcDbLine
 62
7
  6
CONTINUOUS
 10
200.0629513995
 20
343.6401317581
 30
0.0
 11
203.1624744458
 21
343.6401317581
 31
0.0
  0
LINE
  5
37F
100
AcDbEntity
  8
0
100
AcDbLine
 62
7
  6
CONTINUOUS
 10
203.4327129226
 20
344.3166442968
 30
0.0
 11
199.7927129226
 21
344.3166442968
 31
0.0
  0
LINE
  5
380
100
AcDbEntity
  8
0
100
AcDbLine
 62
7
  6
CONTINUOUS
 10
203.4852129226
 20
344.5266442968
 30
0.0
 11
199.7402129226
 21
344.5266442968
 31
0.0
  0
LINE
  5
381
100
AcDbEntity
  8
0
100
AcDbLine
 62
7
  6
CONTINUOUS
 10
202.5402356813
 20
344.650400549
 30
0.0
 11
200.685190164
 21
344.650400549
 31
0.0
  0
ARC
  5
382
100
AcDbEntity
  8
0
100
AcDbCircle
 62
7
  6
CONTINUOUS
 10
68.5817411534
 20
318.5945958898
 30
0.0
 40
4.1914763954
100
AcDbArc
 50
353.9542527346
 51
355.3283586672
  0
ARC
  5
383
100
AcDbEntity
  8
0
100
AcDbCircle
 62
7
  6
CONTINUOUS
 10
85.1423928419
 20
318.5823855545
 30
0.0
 40
4.1912578566
100
AcDbArc
 50
173.9583471964
 51
175.3274932871
  0
ARC
  5
384
100
AcDbEntity
  8
0
100
AcDbCircle
 62
7
  6
CONTINUOUS
 10
85.1303327629
 20
318.5934440841
 30
0.0
 40
4.1791440719
100
AcDbArc
 50
184.6696137966
 51
186.0477747961
  0
ARC
  5
385
100
AcDbEntity
  8
0
100
AcDbCircle
 62
7
  6
CONTINUOUS
 10
68.6079376732
 20
318.5848214991
 30
0.0
 40
4.165168481
100
AcDbArc
 50
4.6682185456
 51
6.0459409776
  0
ARC
  5
386
100
AcDbEntity
  8
0
100
AcDbCircle
 62
7
  6
CONTINUOUS
 10
68.7514853796
 20
339.0633613581
 30
0.0
 40
4.0440587227
100
AcDbArc
 50
0.0018232059
 51
0.687569703
  0
ARC
  5
387
100
AcDbEntity
  8
0
100
AcDbCircle
 62
7
  6
CONTINUOUS
 10
68.752154904
 20
339.0636245746
 30
0.0
 40
4.0433891985
100
AcDbArc
 50
359.3018482036
 51
359.9980936686
  0
ARC
  5
388
100
AcDbEntity
  8
TUBETTO
100
AcDbCircle
 62
7
  6
CONTINUOUS
 10
76.8621766137
 20
81.8134900438
 30
0.0
 40
0.7
100
AcDbArc
 50
0.0
 51
180.0
  0
ARC
  5
389
100
AcDbEntity
  8
TUBETTO
100
AcDbCircle
 62
7
  6
CONTINUOUS
 10
76.8621766137
 20
79.7134900438
 30
0.0
 40
0.7
100
AcDbArc
 50
180.0
 51
360.0
  0
ARC
  5
38A
100
AcDbEntity
  8
PORTALENTE
100
AcDbCircle
 62
7
  6
CONTINUOUS
 10
64.0907956912
 20
68.4784900438
 30
0.0
 40
0.35
100
AcDbArc
 50
199.2245803205
 51
270.0
  0
ARC
  5
38B
100
AcDbEntity
  8
PORTALENTE
100
AcDbCircle
 62
7
  6
CONTINUOUS
 10
89.6335575362
 20
68.4784900438
 30
0.0
 40
0.35
100
AcDbArc
 50
270.0
 51
340.7754196795
  0
ARC
  5
38C
100
AcDbEntity
  8
0
100
AcDbCircle
 62
7
  6
CONTINUOUS
 10
48.8397653889
 20
342.0997355418
 30
0.0
 40
0.105
100
AcDbArc
 50
180.0
 51
266.3328279532
  0
ARC
  5
38D
100
AcDbEntity
  8
0
100
AcDbCircle
 62
7
  6
CONTINUOUS
 10
104.8845878385
 20
342.0997355418
 30
0.0
 40
0.105
100
AcDbArc
 50
273.6671720469
 51
360.0
  0
ARC
  5
38E
100
AcDbEntity
  8
0
100
AcDbCircle
 62
7
  6
CONTINUOUS
 10
59.610855321
 20
343.6761442968
 30
0.0
 40
0.07
100
AcDbArc
 50
180.0000000001
 51
270.0000000017
  0
ARC
  5
38F
100
AcDbEntity
  8
0
100
AcDbCircle
 62
7
  6
CONTINUOUS
 10
60.240855321
 20
343.6761442968
 30
0.0
 40
0.07
100
AcDbArc
 50
269.9999999985
 51
360.0
  0
ARC
  5
390
100
AcDbEntity
  8
0
100
AcDbCircle
 62
7
  6
CONTINUOUS
 10
60.240855321
 20
343.9911442968
 30
0.0
 40
0.07
100
AcDbArc
 50
0.0000000001
 51
89.9999999985
  0
ARC
  5
391
100
AcDbEntity
  8
0
100
AcDbCircle
 62
7
  6
CONTINUOUS
 10
59.610855321
 20
343.9911442968
 30
0.0
 40
0.07
100
AcDbArc
 50
90.0000000017
 51
180.0000000001
  0
ARC
  5
392
100
AcDbEntity
  8
0
100
AcDbCircle
 62
7
  6
CONTINUOUS
 10
78.8046766137
 20
343.6761442969
 30
0.0
 40
0.07
100
AcDbArc
 50
270.0000000017
 51
360.0
  0
ARC
  5
393
100
AcDbEntity
  8
0
100
AcDbCircle
 62
7
  6
CONTINUOUS
 10
78.8046766137
 20
343.9911442969
 30
0.0
 40
0.07
100
AcDbArc
 50
0.0000000001
 51
90.0000000017
  0
ARC
  5
394
100
AcDbEntity
  8
0
100
AcDbCircle
 62
7
  6
CONTINUOUS
 10
78.0696766137
 20
343.9911442969
 30
0.0
 40
0.07
100
AcDbArc
 50
89.9999999985
 51
180.0
  0
ARC
  5
395
100
AcDbEntity
  8
0
100
AcDbCircle
 62
7
  6
CONTINUOUS
 10
78.0696766137
 20
343.6761442969
 30
0.0
 40
0.07
100
AcDbArc
 50
180.0000000002
 51
269.9999999985
  0
ARC
  5
396
100
AcDbEntity
  8
CAPPELLO
100
AcDbCircle
 62
7
  6
CONTINUOUS
 10
187.3876390531
 20
74.6384900438
 30
0.0
 40
1.05
100
AcDbArc
 50
90.0
 51
103.57
  0
ARC
  5
397
100
AcDbEntity
  8
PORTALENTE
100
AcDbCircle
 62
7
  6
CONTINUOUS
 10
188.8413320001
 20
68.4784900438
 30
0.0
 40
0.35
100
AcDbArc
 50
199.2245803204
 51
270.0
  0
ARC
  5
398
100
AcDbEntity
  8
0
100
AcDbCircle
 62
7
  6
CONTINUOUS
 10
199.7375503842
 20
342.7944500688
 30
0.0
 40
0.28
100
AcDbArc
 50
134.0037387102
 51
242.4087596641
  0
ARC
  5
399
100
AcDbEntity
  8
0
100
AcDbCircle
 62
7
  6
CONTINUOUS
 10
199.4427129226
 20
343.2395735386
 30
0.0
 40
0.245
100
AcDbArc
 50
314.0037387198
 51
360.0
  0
ARC
  5
39A
100
AcDbEntity
  8
0
100
AcDbCircle
 62
7
  6
CONTINUOUS
 10
199.4679612063
 20
342.7773707871
 30
0.0
 40
0.105
100
AcDbArc
 50
134.0037387148
 51
242.4087596624
  0
ARC
  5
39B
100
AcDbEntity
  8
TUBETTO
100
AcDbCircle
 62
7
  6
CONTINUOUS
 10
205.5400330685
 20
80.9294822455
 30
0.0
 40
3.4568836336
100
AcDbArc
 50
213.3127129096
 51
213.5186663903
  0
ARC
  5
39C
100
AcDbEntity
  8
TUBETTO
100
AcDbCircle
 62
7
  6
CONTINUOUS
 10
205.073110532
 20
80.6239861528
 30
0.0
 40
2.8989024774
100
AcDbArc
 50
212.1589313554
 51
213.3352258235
  0
ARC
  5
39D
100
AcDbEntity
  8
TUBETTO
100
AcDbCircle
 62
7
  6
CONTINUOUS
 10
205.0380882251
 20
80.9255215476
 30
0.0
 40
2.8572627498
100
AcDbArc
 50
146.6522697023
 51
147.8495943691
  0
ARC
  5
39E
100
AcDbEntity
  8
CAPPELLO
100
AcDbCircle
 62
7
  6
CONTINUOUS
 10
215.8377867922
 20
74.6384900438
 30
0.0
 40
1.05
100
AcDbArc
 50
76.43
 51
90.0
  0
ARC
  5
39F
100
AcDbEntity
  8
PORTALENTE
100
AcDbCircle
 62
7
  6
CONTINUOUS
 10
214.3840938451
 20
68.4784900438
 30
0.0
 40
0.35
100
AcDbArc
 50
270.0
 51
340.7754196796
  0
ARC
  5
3A0
100
AcDbEntity
  8
0
100
AcDbCircle
 62
9
  6
CONTINUOUS
 10
201.9587257763
 20
341.8356082833
 30
0.0
 40
2.0352304043
100
AcDbArc
 50
26.4542856219
 51
27.3572398472
  0
ARC
  5
3A1
100
AcDbEntity
  8
0
100
AcDbCircle
 62
2
  6
CONTINUOUS
 10
201.6127129226
 20
339.0634900439
 30
0.0
 40
0.7
100
AcDbArc
 50
0.0
 51
180.0
  0
CIRCLE
  5
3A2
100
AcDbEntity
  8
0
100
AcDbCircle
 62
7
  6
CONTINUOUS
 10
201.6127129226
 20
339.0634900439
 30
0.0
 40
0.6125
  0
ARC
  5
3A3
100
AcDbEntity
  8
ALL_FEATURES
100
AcDbCircle
 62
2
  6
CONTINUOUS
 10
201.6127129226
 20
318.5884900439
 30
0.0
 40
0.455
100
AcDbArc
 50
179.9999999998
 51
195.0
  0
ARC
  5
3A4
100
AcDbEntity
  8
ALL_FEATURES
100
AcDbCircle
 62
2
  6
CONTINUOUS
 10
201.6127129226
 20
318.5884900439
 30
0.0
 40
0.455
100
AcDbArc
 50
255.0
 51
359.9999999998
  0
CIRCLE
  5
3A5
100
AcDbEntity
  8
0
100
AcDbCircle
 62
7
  6
CONTINUOUS
 10
201.6127129226
 20
318.5884900439
 30
0.0
 40
0.4375
  0
ARC
  5
3A6
100
AcDbEntity
  8
0
100
AcDbCircle
 62
7
  6
CONTINUOUS
 10
203.4878754611
 20
342.7944500688
 30
0.0
 40
0.28
100
AcDbArc
 50
297.5912403419
 51
45.996261285
  0
ARC
  5
3A7
100
AcDbEntity
  8
0
100
AcDbCircle
 62
7
  6
CONTINUOUS
 10
203.7827129226
 20
343.2395735386
 30
0.0
 40
0.245
100
AcDbArc
 50
179.9999999966
 51
225.9962612857
  0
ARC
  5
3A8
100
AcDbEntity
  8
0
100
AcDbCircle
 62
7
  6
CONTINUOUS
 10
203.757464639
 20
342.7773707871
 30
0.0
 40
0.105
100
AcDbArc
 50
297.5912403374
 51
45.9962612854
  0
SPLINE
  5
3A9
100
AcDbEntity
  8
0
100
AcDbSpline
 62
2
  6
CONTINUOUS
 70
0
 71
3
 72
14
 73
10
 74
0
 42
0.0000001
 43
0.0000001
 44
0.0000000001
 40
0.0
 40
0.0
 40
0.0
 40
0.0
 40
0.1544989199
 40
0.3089978399
 40
0.4634967598
 40
0.6179956798
 40
0.7724945997
 40
0.9269935197
 40
1.0
 40
1.0
 40
1.0
 40
1.0
 10
72.8096889518
 20
339.0634900439
 30
0.0
 10
72.8096889518
 20
339.1185885939
 30
0.0
 10
72.8074235564
 20
339.2297740273
 30
0.0
 10
72.7973306173
 20
339.3923149383
 30
0.0
 10
72.7832872978
 20
339.532319248
 30
0.0
 10
72.7688237135
 20
339.643071666
 30
0.0
 10
72.7562226562
 20
339.7248496069
 30
0.0
 10
72.7505774203
 20
339.7581789221
 30
0.0
 10
72.7496925266
 20
339.7634035743
 30
0.0
 10
72.7496635181
 20
339.76357487
 30
0.0
  0
SPLINE
  5
3AA
100
AcDbEntity
  8
0
100
AcDbSpline
 62
2
  6
CONTINUOUS
 70
0
 71
3
 72
14
 73
10
 74
0
 42
0.0000001
 43
0.0000001
 44
0.0000000001
 40
0.0
 40
0.0
 40
0.0
 40
0.0
 40
0.0730603553
 40
0.2275502961
 40
0.3820402368
 40
0.5365301776
 40
0.6910201184
 40
0.8455100592
 40
1.0
 40
1.0
 40
1.0
 40
1.0
 10
72.7496636645
 20
338.3634060739
 30
0.0
 10
72.7496935415
 20
338.3635824502
 30
0.0
 10
72.7505818778
 20
338.3688273103
 30
0.0
 10
72.7562297126
 20
338.4021745935
 30
0.0
 10
72.7688339893
 20
338.4839760254
 30
0.0
 10
72.7833069589
 20
338.5948293231
 30
0.0
 10
72.7973364085
 20
338.734756413
 30
0.0
 10
72.8074219766
 20
338.89718844
 30
0.0
 10
72.8096889518
 20
339.0083760451
 30
0.0
 10
72.8096889518
 20
339.0634900439
 30
0.0
  0
SPLINE
  5
3AB
100
AcDbEntity
  8
PORTALENTE
100
AcDbSpline
 62
7
  6
CONTINUOUS
 70
0
 71
3
 72
12
 73
8
 74
0
 42
0.0000001
 43
0.0000001
 44
0.0000000001
 40
0.0
 40
0.0
 40
0.0
 40
0.0
 40
0.1233144573
 40
0.2488930526
 40
0.4395774653
 40
0.6303487756
 40
1.0
 40
1.0
 40
1.0
 40
1.0
 10
86.9986340652
 20
68.1278277965
 30
0.0
 10
86.702141984
 20
67.7489355623
 30
0.0
 10
86.0564641266
 20
67.0200708562
 30
0.0
 10
84.7823233509
 20
65.8682196214
 30
0.0
 10
83.145712318
 20
64.7397328327
 30
0.0
 10
80.5047387834
 20
63.4600638633
 30
0.0
 10
78.3043669505
 20
62.9834900438
 30
0.0
 10
76.8621766137
 20
62.9834900438
 30
0.0
  0
SPLINE
  5
3AC
100
AcDbEntity
  8
PORTALENTE
100
AcDbSpline
 62
7
  6
CONTINUOUS
 70
0
 71
3
 72
12
 73
8
 74
0
 42
0.0000001
 43
0.0000001
 44
0.0000000001
 40
0.0
 40
0.0
 40
0.0
 40
0.0
 40
0.1233144573
 40
0.2488930526
 40
0.4395774653
 40
0.6303487756
 40
1.0
 40
1.0
 40
1.0
 40
1.0
 10
66.7257191623
 20
68.1278277965
 30
0.0
 10
67.0222112434
 20
67.7489355623
 30
0.0
 10
67.6678891009
 20
67.0200708562
 30
0.0
 10
68.9420298766
 20
65.8682196214
 30
0.0
 10
70.5786409095
 20
64.7397328327
 30
0.0
 10
73.2196144441
 20
63.4600638633
 30
0.0
 10
75.419986277
 20
62.9834900438
 30
0.0
 10
76.8621766137
 20
62.9834900438
 30
0.0
  0
SPLINE
  5
3AD
100
AcDbEntity
  8
0
100
AcDbSpline
 62
7
  6
CONTINUOUS
 70
0
 71
3
 72
9
 73
5
 74
0
 42
0.0000001
 43
0.0000001
 44
0.0000000001
 40
0.0
 40
0.0
 40
0.0
 40
0.0
 40
0.1036663516
 40
1.0
 40
1.0
 40
1.0
 40
1.0
 10
72.7501544145
 20
339.6727768518
 30
0.0
 10
72.7529970688
 20
339.653537419
 30
0.0
 10
72.7792963644
 20
339.4677976475
 30
0.0
 10
72.7932403599
 20
339.2800347592
 30
0.0
 10
72.7952529163
 20
339.1118903343
 30
0.0
  0
SPLINE
  5
3AE
100
AcDbEntity
  8
0
100
AcDbSpline
 62
7
  6
CONTINUOUS
 70
0
 71
3
 72
9
 73
5
 74
0
 42
0.0000001
 43
0.0000001
 44
0.0000000001
 40
0.0
 40
0.0
 40
0.0
 40
0.0
 40
0.3632771345
 40
1.0
 40
1.0
 40
1.0
 40
1.0
 10
72.7952439343
 20
339.0143569042
 30
0.0
 10
72.7944172484
 20
338.9463308329
 30
0.0
 10
72.7874691795
 20
338.7591201971
 30
0.0
 10
72.7676831237
 20
338.5726057628
 30
0.0
 10
72.7502204158
 20
338.4546519918
 30
0.0
  0
LINE
  5
3AF
100
AcDbEntity
  8
0
100
AcDbLine
 62
9
  6
CONTINUOUS
 10
80.7269460606
 20
342.8528967062
 30
0.0
 11
80.7288233614
 21
342.7773707868
 31
0.0
  0
SPLINE
  5
3B0
100
AcDbEntity
  8
0
100
AcDbSpline
 62
9
  6
CONTINUOUS
 70
0
 71
3
 72
9
 73
5
 74
0
 42
0.0000001
 43
0.0000001
 44
0.0000000001
 40
0.0
 40
0.0
 40
0.0
 40
0.0
 40
0.306507903
 40
1.0
 40
1.0
 40
1.0
 40
1.0
 10
80.7291583883
 20
342.7623834182
 30
0.0
 10
80.7293379002
 20
342.7544056832
 30
0.0
 10
80.729959006
 20
342.7283795678
 30
0.0
 10
80.7305034574
 20
342.7023458012
 30
0.0
 10
80.7313706227
 20
342.684311976
 30
0.0
  0
LINE
  5
3B1
100
AcDbEntity
  8
0
100
AcDbLine
 62
9
  6
CONTINUOUS
 10
80.7288233782
 20
342.7773707872
 30
0.0
 11
80.7291583068
 21
342.7623834165
 31
0.0
  0
SPLINE
  5
3B2
100
AcDbEntity
  8
0
100
AcDbSpline
 62
9
  6
CONTINUOUS
 70
0
 71
3
 72
9
 73
5
 74
0
 42
0.0000001
 43
0.0000001
 44
0.0000000001
 40
0.0
 40
0.0
 40
0.0
 40
0.0
 40
0.2902757739
 40
1.0
 40
1.0
 40
1.0
 40
1.0
 10
80.7291583156
 20
342.762383726
 30
0.0
 10
80.7213083767
 20
342.7626167881
 30
0.0
 10
80.6942708659
 20
342.7636927411
 30
0.0
 10
80.6673236181
 20
342.7664462132
 30
0.0
 10
80.6482793784
 20
342.7688991135
 30
0.0
  0
SPLINE
  5
3B3
100
AcDbEntity
  8
0
100
AcDbSpline
 62
9
  6
CONTINUOUS
 70
0
 71
3
 72
9
 73
5
 74
0
 42
0.0000001
 43
0.0000001
 44
0.0000000001
 40
0.0
 40
0.0
 40
0.0
 40
0.0
 40
0.2008774607
 40
1.0
 40
1.0
 40
1.0
 40
1.0
 10
80.6223942981
 20
342.7153341859
 30
0.0
 10
80.623555526
 20
342.7191515012
 30
0.0
 10
80.6301415184
 20
342.7379227282
 30
0.0
 10
80.6401383054
 20
342.7552726574
 30
0.0
 10
80.6482793706
 20
342.7688989005
 30
0.0
  0
SPLINE
  5
3B4
100
AcDbEntity
  8
0
100
AcDbSpline
 62
7
  6
CONTINUOUS
 70
0
 71
3
 72
9
 73
5
 74
0
 42
0.0000001
 43
0.0000001
 44
0.0000000001
 40
0.0
 40
0.0
 40
0.0
 40
0.0
 40
0.5160189832
 40
1.0
 40
1.0
 40
1.0
 40
1.0
 10
80.4919462081
 20
342.6062692264
 30
0.0
 10
80.4915425524
 20
342.5759696293
 30
0.0
 10
80.5064727106
 20
342.5159864009
 30
0.0
 10
80.5483099188
 20
342.4711844088
 30
0.0
 10
80.5720353754
 20
342.4555366916
 30
0.0
  0
SPLINE
  5
3B5
100
AcDbEntity
  8
0
100
AcDbSpline
 62
9
  6
CONTINUOUS
 70
0
 71
3
 72
9
 73
5
 74
0
 42
0.0000001
 43
0.0000001
 44
0.0000000001
 40
0.0
 40
0.0
 40
0.0
 40
0.0
 40
0.2722959717
 40
1.0
 40
1.0
 40
1.0
 40
1.0
 10
80.6223942961
 20
342.7153341624
 30
0.0
 10
80.6148658144
 20
342.7201554019
 30
0.0
 10
80.5885663472
 20
342.7397344147
 30
0.0
 10
80.567650847
 20
342.7675876593
 30
0.0
 10
80.5598853713
 20
342.7901821859
 30
0.0
  0
SPLINE
  5
3B6
100
AcDbEntity
  8
0
100
AcDbSpline
 62
9
  6
CONTINUOUS
 70
0
 71
3
 72
8
 73
4
 74
0
 42
0.0000001
 43
0.0000001
 44
0.0000000001
 40
0.0
 40
0.0
 40
0.0
 40
0.0
 40
1.0
 40
1.0
 40
1.0
 40
1.0
 10
80.7313705357
 20
342.6843119736
 30
0.0
 10
80.6936034556
 20
342.6839741886
 30
0.0
 10
80.6541999232
 20
342.6949658595
 30
0.0
 10
80.6223942979
 20
342.7153341837
 30
0.0
  0
SPLINE
  5
3B7
100
AcDbEntity
  8
0
100
AcDbSpline
 62
7
  6
CONTINUOUS
 70
0
 71
3
 72
9
 73
5
 74
0
 42
0.0000001
 43
0.0000001
 44
0.0000000001
 40
0.0
 40
0.0
 40
0.0
 40
0.0
 40
0.5064462508
 40
1.0
 40
1.0
 40
1.0
 40
1.0
 10
82.2426297269
 20
342.9949176851
 30
0.0
 10
82.2426297269
 20
343.0258150298
 30
0.0
 10
82.2313913954
 20
343.0873460308
 30
0.0
 10
82.1751608444
 20
343.1355866423
 30
0.0
 10
82.1450500474
 20
343.1355866423
 30
0.0
  0
SPLINE
  5
3B8
100
AcDbEntity
  8
0
100
AcDbSpline
 62
9
  6
CONTINUOUS
 70
0
 71
3
 72
9
 73
5
 74
0
 42
0.0000001
 43
0.0000001
 44
0.0000000001
 40
0.0
 40
0.0
 40
0.0
 40
0.0
 40
0.520418173
 40
1.0
 40
1.0
 40
1.0
 40
1.0
 10
82.1259689312
 20
342.6843119751
 30
0.0
 10
82.1521110024
 20
342.6848743624
 30
0.0
 10
82.2041566636
 20
342.7028035416
 30
0.0
 10
82.2301671371
 20
342.7532834495
 30
0.0
 10
82.2308250323
 20
342.7773707871
 30
0.0
  0
SPLINE
  5
3B9
100
AcDbEntity
  8
0
100
AcDbSpline
 62
9
  6
CONTINUOUS
 70
0
 71
3
 72
9
 73
5
 74
0
 42
0.0000001
 43
0.0000001
 44
0.0000000001
 40
0.0
 40
0.0
 40
0.0
 40
0.0
 40
0.4458177753
 40
1.0
 40
1.0
 40
1.0
 40
1.0
 10
82.2308250323
 20
342.7773707871
 30
0.0
 10
82.2297921743
 20
342.7978325078
 30
0.0
 10
82.1986103094
 20
342.8407221301
 30
0.0
 10
82.1514279156
 20
342.8522299854
 30
0.0
 10
82.1259689312
 20
342.8528967065
 30
0.0
  0
SPLINE
  5
3BA
100
AcDbEntity
  8
0
100
AcDbSpline
 62
7
  6
CONTINUOUS
 70
0
 71
3
 72
9
 73
5
 74
0
 42
0.0000001
 43
0.0000001
 44
0.0000000001
 40
0.0
 40
0.0
 40
0.0
 40
0.0
 40
0.3075121277
 40
1.0
 40
1.0
 40
1.0
 40
1.0
 10
82.2426331528
 20
342.6605126213
 30
0.0
 10
82.2426331528
 20
342.6549168755
 30
0.0
 10
82.2429193985
 20
342.6367211233
 30
0.0
 10
82.2433441856
 20
342.618529632
 30
0.0
 10
82.2436502075
 20
342.6059322646
 30
0.0
  0
SPLINE
  5
3BB
100
AcDbEntity
  8
0
100
AcDbSpline
 62
7
  6
CONTINUOUS
 70
0
 71
3
 72
9
 73
5
 74
0
 42
0.0000001
 43
0.0000001
 44
0.0000000001
 40
0.0
 40
0.0
 40
0.0
 40
0.0
 40
0.495138628
 40
1.0
 40
1.0
 40
1.0
 40
1.0
 10
82.2436500216
 20
342.6059324505
 30
0.0
 10
82.2444170862
 20
342.5743563002
 30
0.0
 10
82.2271546325
 20
342.5090088329
 30
0.0
 10
82.1781563028
 20
342.4626281988
 30
0.0
 10
82.1497156854
 20
342.447517348
 30
0.0
  0
SPLINE
  5
3BC
100
AcDbEntity
  8
0
100
AcDbSpline
 62
7
  6
CONTINUOUS
 70
0
 71
3
 72
9
 73
5
 74
0
 42
0.0000001
 43
0.0000001
 44
0.0000000001
 40
0.0
 40
0.0
 40
0.0
 40
0.0
 40
0.2793745557
 40
1.0
 40
1.0
 40
1.0
 40
1.0
 10
82.0729800977
 20
342.4281065608
 30
0.0
 10
82.0803941331
 20
342.4281065608
 30
0.0
 10
82.1069035097
 20
342.4301940077
 30
0.0
 10
82.1328274682
 20
342.4385444299
 30
0.0
 10
82.1497156851
 20
342.4475173479
 30
0.0
  0
SPLINE
  5
3BD
100
AcDbEntity
  8
0
100
AcDbSpline
 62
7
  6
CONTINUOUS
 70
0
 71
3
 72
9
 73
5
 74
0
 42
0.0000001
 43
0.0000001
 44
0.0000000001
 40
0.0
 40
0.0
 40
0.0
 40
0.0
 40
0.2130307645
 40
1.0
 40
1.0
 40
1.0
 40
1.0
 10
80.5720353754
 20
342.4555366916
 30
0.0
 10
80.5776673953
 20
342.4518221896
 30
0.0
 10
80.6051103404
 20
342.4360085147
 30
0.0
 10
80.6373877152
 20
342.4281065608
 30
0.0
 10
80.6623108733
 20
342.4281065608
 30
0.0
  0
SPLINE
  5
3BE
100
AcDbEntity
  8
0
100
AcDbSpline
 62
9
  6
CONTINUOUS
 70
0
 71
3
 72
9
 73
5
 74
0
 42
0.0000001
 43
0.0000001
 44
0.0000000001
 40
0.0
 40
0.0
 40
0.0
 40
0.0
 40
0.2094637774
 40
1.0
 40
1.0
 40
1.0
 40
1.0
 10
80.5598853745
 20
342.790182246
 30
0.0
 10
80.562886347
 20
342.7948526532
 30
0.0
 10
80.5798573741
 20
342.8154393429
 30
0.0
 10
80.6038950071
 20
342.8291127004
 30
0.0
 10
80.6233444619
 20
342.8369031846
 30
0.0
  0
SPLINE
  5
3BF
100
AcDbEntity
  8
0
100
AcDbSpline
 62
9
  6
CONTINUOUS
 70
0
 71
3
 72
9
 73
5
 74
0
 42
0.0000001
 43
0.0000001
 44
0.0000000001
 40
0.0
 40
0.0
 40
0.0
 40
0.0
 40
0.235644374
 40
1.0
 40
1.0
 40
1.0
 40
1.0
 10
80.6233444616
 20
342.8369031681
 30
0.0
 10
80.6310222056
 20
342.8399784907
 30
0.0
 10
80.6643659826
 20
342.8510606854
 30
0.0
 10
80.7001693387
 20
342.8545495312
 30
0.0
 10
80.7269460782
 20
342.8528967163
 30
0.0
  0
SPLINE
  5
3C0
100
AcDbEntity
  8
0
100
AcDbSpline
 62
9
  6
CONTINUOUS
 70
0
 71
3
 72
9
 73
5
 74
0
 42
0.0000001
 43
0.0000001
 44
0.0000000001
 40
0.0
 40
0.0
 40
0.0
 40
0.0
 40
0.2209942681
 40
1.0
 40
1.0
 40
1.0
 40
1.0
 10
80.6233444613
 20
342.8369031556
 30
0.0
 10
80.624338228
 20
342.8316482033
 30
0.0
 10
80.6296004503
 20
342.8079937533
 30
0.0
 10
80.6396226807
 20
342.7856458851
 30
0.0
 10
80.6482793706
 20
342.7688989005
 30
0.0
  0
SPLINE
  5
3C1
100
AcDbEntity
  8
0
100
AcDbSpline
 62
7
  6
CONTINUOUS
 70
0
 71
3
 72
9
 73
5
 74
0
 42
0.0000001
 43
0.0000001
 44
0.0000000001
 40
0.0
 40
0.0
 40
0.0
 40
0.0
 40
0.5048601961
 40
1.0
 40
1.0
 40
1.0
 40
1.0
 10
71.574637542
 20
342.447517348
 30
0.0
 10
71.5461969923
 20
342.4626281629
 30
0.0
 10
71.4971986747
 20
342.5090087655
 30
0.0
 10
71.4799361394
 20
342.5743562268
 30
0.0
 10
71.4807032058
 20
342.6059324505
 30
0.0
  0
SPLINE
  5
3C2
100
AcDbEntity
  8
0
100
AcDbSpline
 62
7
  6
CONTINUOUS
 70
0
 71
3
 72
9
 73
5
 74
0
 42
0.0000001
 43
0.0000001
 44
0.0000000001
 40
0.0
 40
0.0
 40
0.0
 40
0.0
 40
0.2793743191
 40
1.0
 40
1.0
 40
1.0
 40
1.0
 10
71.6513731702
 20
342.4281065608
 30
0.0
 10
71.643959136
 20
342.4281065608
 30
0.0
 10
71.617449728
 20
342.4301938558
 30
0.0
 10
71.5915257762
 20
342.4385444209
 30
0.0
 10
71.5746375423
 20
342.4475173479
 30
0.0
  0
SPLINE
  5
3C3
100
AcDbEntity
  8
0
100
AcDbSpline
 62
9
  6
CONTINUOUS
 70
0
 71
3
 72
14
 73
10
 74
0
 42
0.0000001
 43
0.0000001
 44
0.0000000001
 40
0.0
 40
0.0
 40
0.0
 40
0.0
 40
0.382936972
 40
0.5553276427
 40
0.7070683524
 40
0.8314633521
 40
0.9238418713
 40
0.9804573512
 40
1.0
 40
1.0
 40
1.0
 40
1.0
 10
48.8397652601
 20
342.1739616391
 30
0.0
 10
48.8394893126
 20
342.1510804977
 30
0.0
 10
48.8389540775
 20
342.1178630291
 30
0.0
 10
48.8378395964
 20
342.0757144341
 30
0.0
 10
48.837079704
 20
342.0487126206
 30
0.0
 10
48.8358664947
 20
342.0273028905
 30
0.0
 10
48.8356497349
 20
342.0095798869
 30
0.0
 10
48.8335428466
 20
342.0020968165
 30
0.0
 10
48.8342148089
 20
341.994875852
 30
0.0
 10
48.8330494083
 20
341.9949505447
 30
0.0
  0
SPLINE
  5
3C4
100
AcDbEntity
  8
0
100
AcDbSpline
 62
7
  6
CONTINUOUS
 70
0
 71
3
 72
14
 73
10
 74
0
 42
0.0000001
 43
0.0000001
 44
0.0000000001
 40
0.0
 40
0.0
 40
0.0
 40
0.0
 40
0.0628144556
 40
0.155398496
 40
0.2709515077
 40
0.4023412373
 40
0.5442314752
 40
0.6928568409
 40
1.0
 40
1.0
 40
1.0
 40
1.0
 10
75.034585311
 20
340.31564777
 30
0.0
 10
75.0815541263
 20
340.3126374555
 30
0.0
 10
75.196573733
 20
340.3516240243
 30
0.0
 10
75.3731759111
 20
340.4480940291
 30
0.0
 10
75.586000559
 20
340.5892417644
 30
0.0
 10
75.8212340421
 20
340.7607491656
 30
0.0
 10
76.0717123009
 20
340.953779777
 30
0.0
 10
76.4217551584
 20
341.2330426196
 30
0.0
 10
76.6851993977
 20
341.4503816597
 30
0.0
 10
76.8621766137
 20
341.5974897096
 30
0.0
  0
SPLINE
  5
3C5
100
AcDbEntity
  8
0
100
AcDbSpline
 62
9
  6
CONTINUOUS
 70
0
 71
3
 72
9
 73
5
 74
0
 42
0.0000001
 43
0.0000001
 44
0.0000000001
 40
0.0
 40
0.0
 40
0.0
 40
0.0
 40
0.479581827
 40
1.0
 40
1.0
 40
1.0
 40
1.0
 10
71.4935281951
 20
342.7773707871
 30
0.0
 10
71.4941860903
 20
342.7532834494
 30
0.0
 10
71.5201965639
 20
342.7028035415
 30
0.0
 10
71.572242225
 20
342.6848743624
 30
0.0
 10
71.5983842963
 20
342.6843119751
 30
0.0
  0
SPLINE
  5
3C6
100
AcDbEntity
  8
0
100
AcDbSpline
 62
9
  6
CONTINUOUS
 70
0
 71
3
 72
9
 73
5
 74
0
 42
0.0000001
 43
0.0000001
 44
0.0000000001
 40
0.0
 40
0.0
 40
0.0
 40
0.0
 40
0.554182091
 40
1.0
 40
1.0
 40
1.0
 40
1.0
 10
71.5983842963
 20
342.8528967065
 30
0.0
 10
71.5729253177
 20
342.8522299856
 30
0.0
 10
71.5257429229
 20
342.8407221387
 30
0.0
 10
71.4945610535
 20
342.7978325141
 30
0.0
 10
71.4935281951
 20
342.7773707871
 30
0.0
  0
SPLINE
  5
3C7
100
AcDbEntity
  8
0
100
AcDbSpline
 62
7
  6
CONTINUOUS
 70
0
 71
3
 72
9
 73
5
 74
0
 42
0.0000001
 43
0.0000001
 44
0.0000000001
 40
0.0
 40
0.0
 40
0.0
 40
0.0
 40
0.3075104458
 40
1.0
 40
1.0
 40
1.0
 40
1.0
 10
71.4817200746
 20
342.6605126213
 30
0.0
 10
71.4817200746
 20
342.6549169061
 30
0.0
 10
71.4814338255
 20
342.6367211539
 30
0.0
 10
71.4810090425
 20
342.6185296625
 30
0.0
 10
71.4807030199
 20
342.6059322645
 30
0.0
  0
SPLINE
  5
3C8
100
AcDbEntity
  8
0
100
AcDbSpline
 62
7
  6
CONTINUOUS
 70
0
 71
3
 72
9
 73
5
 74
0
 42
0.0000001
 43
0.0000001
 44
0.0000000001
 40
0.0
 40
0.0
 40
0.0
 40
0.0
 40
0.2130307646
 40
1.0
 40
1.0
 40
1.0
 40
1.0
 10
73.152317852
 20
342.4555366915
 30
0.0
 10
73.1466858322
 20
342.4518221896
 30
0.0
 10
73.1192428877
 20
342.4360085151
 30
0.0
 10
73.0869655136
 20
342.4281065608
 30
0.0
 10
73.062042356
 20
342.4281065608
 30
0.0
  0
SPLINE
  5
3C9
100
AcDbEntity
  8
0
100
AcDbSpline
 62
7
  6
CONTINUOUS
 70
0
 71
3
 72
9
 73
5
 74
0
 42
0.0000001
 43
0.0000001
 44
0.0000000001
 40
0.0
 40
0.0
 40
0.0
 40
0.0
 40
0.516008281
 40
1.0
 40
1.0
 40
1.0
 40
1.0
 10
73.2324070193
 20
342.6062692264
 30
0.0
 10
73.2328106665
 20
342.5759702665
 30
0.0
 10
73.2178806869
 20
342.51598721
 30
0.0
 10
73.1760438266
 20
342.4711847504
 30
0.0
 10
73.1523178523
 20
342.4555366917
 30
0.0
  0
SPLINE
  5
3CA
100
AcDbEntity
  8
0
100
AcDbSpline
 62
9
  6
CONTINUOUS
 70
0
 71
3
 72
9
 73
5
 74
0
 42
0.0000001
 43
0.0000001
 44
0.0000000001
 40
0.0
 40
0.0
 40
0.0
 40
0.0
 40
0.2913727284
 40
1.0
 40
1.0
 40
1.0
 40
1.0
 10
73.1010087655
 20
342.8369031845
 30
0.0
 10
73.1081688963
 20
342.8340351923
 30
0.0
 10
73.1320274954
 20
342.8228625719
 30
0.0
 10
73.1543274
 20
342.8059638112
 30
0.0
 10
73.164467853
 20
342.790182246
 30
0.0
  0
SPLINE
  5
3CB
100
AcDbEntity
  8
0
100
AcDbSpline
 62
9
  6
CONTINUOUS
 70
0
 71
3
 72
9
 73
5
 74
0
 42
0.0000001
 43
0.0000001
 44
0.0000000001
 40
0.0
 40
0.0
 40
0.0
 40
0.0
 40
0.2622349911
 40
1.0
 40
1.0
 40
1.0
 40
1.0
 10
72.9974071492
 20
342.8528967163
 30
0.0
 10
73.0065942835
 20
342.8534637992
 30
0.0
 10
73.0417078897
 20
342.85366653
 30
0.0
 10
73.0769694665
 20
342.8465321166
 30
0.0
 10
73.1010087659
 20
342.836903168
 30
0.0
  0
SPLINE
  5
3CC
100
AcDbEntity
  8
0
100
AcDbSpline
 62
9
  6
CONTINUOUS
 70
0
 71
3
 72
9
 73
5
 74
0
 42
0.0000001
 43
0.0000001
 44
0.0000000001
 40
0.0
 40
0.0
 40
0.0
 40
0.0
 40
0.2902754676
 40
1.0
 40
1.0
 40
1.0
 40
1.0
 10
72.9951949112
 20
342.762383746
 30
0.0
 10
73.0030448418
 20
342.7626168079
 30
0.0
 10
73.0300823524
 20
342.7636927595
 30
0.0
 10
73.0570296008
 20
342.7664462252
 30
0.0
 10
73.0760738485
 20
342.7688991273
 30
0.0
  0
LINE
  5
3CD
100
AcDbEntity
  8
0
100
AcDbLine
 62
9
  6
CONTINUOUS
 10
72.9955298661
 20
342.7773707868
 30
0.0
 11
72.9974071668
 21
342.8528967062
 31
0.0
  0
LINE
  5
3CE
100
AcDbEntity
  8
0
100
AcDbLine
 62
9
  6
CONTINUOUS
 10
72.9951949207
 20
342.7623834164
 30
0.0
 11
72.9955298494
 21
342.7773707872
 31
0.0
  0
SPLINE
  5
3CF
100
AcDbEntity
  8
0
100
AcDbSpline
 62
9
  6
CONTINUOUS
 70
0
 71
3
 72
9
 73
5
 74
0
 42
0.0000001
 43
0.0000001
 44
0.0000000001
 40
0.0
 40
0.0
 40
0.0
 40
0.0
 40
0.1791973997
 40
1.0
 40
1.0
 40
1.0
 40
1.0
 10
72.9929826048
 20
342.684311976
 30
0.0
 10
72.9932066808
 20
342.6889719272
 30
0.0
 10
72.9941604671
 20
342.7149900455
 30
0.0
 10
72.9947141175
 20
342.7410195456
 30
0.0
 10
72.9951948392
 20
342.7623834182
 30
0.0
  0
SPLINE
  5
3D0
100
AcDbEntity
  8
0
100
AcDbSpline
 62
9
  6
CONTINUOUS
 70
0
 71
3
 72
9
 73
5
 74
0
 42
0.0000001
 43
0.0000001
 44
0.0000000001
 40
0.0
 40
0.0
 40
0.0
 40
0.0
 40
0.2008743087
 40
1.0
 40
1.0
 40
1.0
 40
1.0
 10
73.1019589294
 20
342.7153341859
 30
0.0
 10
73.100797715
 20
342.7191514352
 30
0.0
 10
73.0942103789
 20
342.7379221475
 30
0.0
 10
73.0842153396
 20
342.7552728543
 30
0.0
 10
73.0760738568
 20
342.7688989005
 30
0.0
  0
SPLINE
  5
3D1
100
AcDbEntity
  8
0
100
AcDbSpline
 62
9
  6
CONTINUOUS
 70
0
 71
3
 72
9
 73
5
 74
0
 42
0.0000001
 43
0.0000001
 44
0.0000000001
 40
0.0
 40
0.0
 40
0.0
 40
0.0
 40
0.2209952796
 40
1.0
 40
1.0
 40
1.0
 40
1.0
 10
73.1010087662
 20
342.8369031556
 30
0.0
 10
73.1000149954
 20
342.8316481845
 30
0.0
 10
73.0947514757
 20
342.8079940808
 30
0.0
 10
73.0847309447
 20
342.7856456309
 30
0.0
 10
73.0760738568
 20
342.7688989005
 30
0.0
  0
SPLINE
  5
3D2
100
AcDbEntity
  8
0
100
AcDbSpline
 62
9
  6
CONTINUOUS
 70
0
 71
3
 72
8
 73
4
 74
0
 42
0.0000001
 43
0.0000001
 44
0.0000000001
 40
0.0
 40
0.0
 40
0.0
 40
0.0
 40
1.0
 40
1.0
 40
1.0
 40
1.0
 10
73.1019589296
 20
342.7153341837
 30
0.0
 10
73.0701533042
 20
342.6949658595
 30
0.0
 10
73.0307497718
 20
342.6839741886
 30
0.0
 10
72.9929826918
 20
342.6843119736
 30
0.0
  0
SPLINE
  5
3D3
100
AcDbEntity
  8
0
100
AcDbSpline
 62
9
  6
CONTINUOUS
 70
0
 71
3
 72
9
 73
5
 74
0
 42
0.0000001
 43
0.0000001
 44
0.0000000001
 40
0.0
 40
0.0
 40
0.0
 40
0.0
 40
0.2297793317
 40
1.0
 40
1.0
 40
1.0
 40
1.0
 10
73.1644678562
 20
342.7901821858
 30
0.0
 10
73.162014206
 20
342.7830430141
 30
0.0
 10
73.1481631117
 20
342.7530689915
 30
0.0
 10
73.123268259
 20
342.7289806552
 30
0.0
 10
73.1019589314
 20
342.7153341624
 30
0.0
  0
SPLINE
  5
3D4
100
AcDbEntity
  8
0
100
AcDbSpline
 62
7
  6
CONTINUOUS
 70
0
 71
3
 72
9
 73
5
 74
0
 42
0.0000001
 43
0.0000001
 44
0.0000000001
 40
0.0
 40
0.0
 40
0.0
 40
0.0
 40
0.5438338462
 40
1.0
 40
1.0
 40
1.0
 40
1.0
 10
98.6993931496
 20
344.404144297
 30
0.0
 10
98.7356509963
 20
344.404144297
 30
0.0
 10
98.8041704348
 20
344.4263047272
 30
0.0
 10
98.8476791955
 20
344.4812684139
 30
0.0
 10
98.8598399474
 20
344.509144297
 30
0.0
  0
SPLINE
  5
3D5
100
AcDbEntity
  8
0
100
AcDbSpline
 62
7
  6
CONTINUOUS
 70
0
 71
3
 72
9
 73
5
 74
0
 42
0.0000001
 43
0.0000001
 44
0.0000000001
 40
0.0
 40
0.0
 40
0.0
 40
0.0
 40
0.7381984217
 40
1.0
 40
1.0
 40
1.0
 40
1.0
 10
96.2270964798
 20
344.509144297
 30
0.0
 10
96.2338996711
 20
344.4935494353
 30
0.0
 10
96.2463860056
 20
344.4736428821
 30
0.0
 10
96.2622129188
 20
344.4568641114
 30
0.0
 10
96.2665720204
 20
344.4526917852
 30
0.0
  0
SPLINE
  5
3D6
100
AcDbEntity
  8
0
100
AcDbSpline
 62
7
  6
CONTINUOUS
 70
0
 71
3
 72
9
 73
5
 74
0
 42
0.0000001
 43
0.0000001
 44
0.0000000001
 40
0.0
 40
0.0
 40
0.0
 40
0.0
 40
0.230992863
 40
1.0
 40
1.0
 40
1.0
 40
1.0
 10
96.2665720204
 20
344.4526917852
 30
0.0
 10
96.2739170856
 20
344.4456614356
 30
0.0
 10
96.3082334632
 20
344.4179645619
 30
0.0
 10
96.3536947988
 20
344.404144297
 30
0.0
 10
96.3875434407
 20
344.404144297
 30
0.0
  0
SPLINE
  5
3D7
100
AcDbEntity
  8
0
100
AcDbSpline
 62
7
  6
CONTINUOUS
 70
0
 71
3
 72
14
 73
10
 74
0
 42
0.0000001
 43
0.0000001
 44
0.0000000001
 40
0.0
 40
0.0
 40
0.0
 40
0.0
 40
0.0628148937
 40
0.1553995942
 40
0.2709527631
 40
0.4023426771
 40
0.5442329504
 40
0.6928577826
 40
1.0
 40
1.0
 40
1.0
 40
1.0
 10
78.6897679165
 20
340.31564777
 30
0.0
 10
78.6427987738
 20
340.3126374346
 30
0.0
 10
78.527778211
 20
340.351623909
 30
0.0
 10
78.3511759719
 20
340.4480958787
 30
0.0
 10
78.1383504467
 20
340.5892435016
 30
0.0
 10
77.9031167086
 20
340.7607510925
 30
0.0
 10
77.6526387352
 20
340.9537816682
 30
0.0
 10
77.302596496
 20
341.2330435594
 30
0.0
 10
77.0391532865
 20
341.4503821112
 30
0.0
 10
76.8621766137
 20
341.5974897096
 30
0.0
  0
SPLINE
  5
3D8
100
AcDbEntity
  8
0
100
AcDbSpline
 62
7
  6
CONTINUOUS
 70
0
 71
3
 72
9
 73
5
 74
0
 42
0.0000001
 43
0.0000001
 44
0.0000000001
 40
0.0
 40
0.0
 40
0.0
 40
0.0
 40
0.6951982771
 40
1.0
 40
1.0
 40
1.0
 40
1.0
 10
104.8876774116
 20
344.3168261546
 30
0.0
 10
104.9114403719
 20
344.3168261546
 30
0.0
 10
104.9456566702
 20
344.3253513676
 30
0.0
 10
104.9793461851
 20
344.3205639366
 30
0.0
 10
104.9895423741
 20
344.3168261546
 30
0.0
  0
SPLINE
  5
3D9
100
AcDbEntity
  8
0
100
AcDbSpline
 62
7
  6
CONTINUOUS
 70
0
 71
3
 72
9
 73
5
 74
0
 42
0.0000001
 43
0.0000001
 44
0.0000000001
 40
0.0
 40
0.0
 40
0.0
 40
0.0
 40
0.3048178469
 40
1.0
 40
1.0
 40
1.0
 40
1.0
 10
48.7348108533
 20
344.3168261545
 30
0.0
 10
48.745007605
 20
344.3205641099
 30
0.0
 10
48.7786971644
 20
344.3253511143
 30
0.0
 10
48.8129134115
 20
344.3168261545
 30
0.0
 10
48.8366758158
 20
344.3168261545
 30
0.0
  0
SPLINE
  5
3DA
100
AcDbEntity
  8
0
100
AcDbSpline
 62
9
  6
CONTINUOUS
 70
0
 71
3
 72
14
 73
10
 74
0
 42
0.0000001
 43
0.0000001
 44
0.0000000001
 40
0.0
 40
0.0
 40
0.0
 40
0.0
 40
0.019484604
 40
0.0763449938
 40
0.1685080308
 40
0.2924874173
 40
0.4443228311
 40
0.6175705869
 40
1.0
 40
1.0
 40
1.0
 40
1.0
 10
104.8913037447
 20
341.99495054
 30
0.0
 10
104.890141805
 20
341.9948760696
 30
0.0
 10
104.8908111997
 20
342.002111283
 30
0.0
 10
104.8887048445
 20
342.0095871792
 30
0.0
 10
104.8884862008
 20
342.0272837735
 30
0.0
 10
104.8872755187
 20
342.0486635715
 30
0.0
 10
104.8865139007
 20
342.0756975946
 30
0.0
 10
104.8853989526
 20
342.1178724235
 30
0.0
 10
104.8848634812
 20
342.1511108147
 30
0.0
 10
104.8845878903
 20
342.1739616382
 30
0.0
  0
SPLINE
  5
3DB
100
AcDbEntity
  8
0
100
AcDbSpline
 62
2
  6
CONTINUOUS
 70
0
 71
3
 72
15
 73
11
 74
0
 42
0.0000001
 43
0.0000001
 44
0.0000000001
 40
0.0
 40
0.0
 40
0.0
 40
0.0
 40
0.0769230769
 40
0.2087912088
 40
0.3406593407
 40
0.4725274725
 40
0.6043956044
 40
0.7362637363
 40
0.8681318681
 40
1.0
 40
1.0
 40
1.0
 40
1.0
 10
201.4324791623
 20
338.3871362049
 30
0.0
 10
201.4646465308
 20
338.3785884533
 30
0.0
 10
201.5530694574
 20
338.3616950239
 30
0.0
 10
201.695529813
 20
338.3617195369
 30
0.0
 10
201.8635275622
 20
338.4021745935
 30
0.0
 10
202.0173533894
 20
338.4839760254
 30
0.0
 10
202.141476036
 20
338.5948293231
 30
0.0
 10
202.2387345929
 20
338.734756413
 30
0.0
 10
202.2997962299
 20
338.89718844
 30
0.0
 10
202.3127129226
 20
339.0083760451
 30
0.0
 10
202.3127129226
 20
339.0634900439
 30
0.0
  0
SPLINE
  5
3DC
100
AcDbEntity
  8
0
100
AcDbSpline
 62
2
  6
CONTINUOUS
 70
0
 71
3
 72
9
 73
5
 74
0
 42
0.0000001
 43
0.0000001
 44
0.0000000001
 40
0.0
 40
0.0
 40
0.0
 40
0.0
 40
0.923076923
 40
1.0
 40
1.0
 40
1.0
 40
1.0
 10
200.9127129226
 20
339.0634900439
 30
0.0
 10
200.9127129226
 20
339.0083914939
 30
0.0
 10
200.9197046354
 20
338.9481660508
 30
0.0
 10
200.9348610927
 20
338.8887694195
 30
0.0
 10
200.9360747585
 20
338.8842071171
 30
0.0
  0
SPLINE
  5
3DD
100
AcDbEntity
  8
0
100
AcDbSpline
 62
7
  6
CONTINUOUS
 70
0
 71
3
 72
8
 73
4
 74
0
 42
0.0000001
 43
0.0000001
 44
0.0000000001
 40
0.0
 40
0.0
 40
0.0
 40
0.0
 40
1.0
 40
1.0
 40
1.0
 40
1.0
 10
199.729838405
 20
342.0585945744
 30
0.0
 10
199.703457222
 20
342.0899002604
 30
0.0
 10
199.6877129229
 20
342.1330225006
 30
0.0
 10
199.6877129226
 20
342.1739616358
 30
0.0
  0
SPLINE
  5
3DE
100
AcDbEntity
  8
0
100
AcDbSpline
 62
7
  6
CONTINUOUS
 70
0
 71
3
 72
8
 73
4
 74
0
 42
0.0000001
 43
0.0000001
 44
0.0000000001
 40
0.0
 40
0.0
 40
0.0
 40
0.0
 40
1.0
 40
1.0
 40
1.0
 40
1.0
 10
203.5377129226
 20
342.1739616391
 30
0.0
 10
203.5377129223
 20
342.1355492066
 30
0.0
 10
203.5240376421
 20
342.0953092283
 30
0.0
 10
203.5006272339
 20
342.064854873
 30
0.0
  0
SPLINE
  5
3DF
100
AcDbEntity
  8
0
100
AcDbSpline
 62
7
  6
CONTINUOUS
 70
0
 71
3
 72
11
 73
7
 74
0
 42
0.0000001
 43
0.0000001
 44
0.0000000001
 40
0.0
 40
0.0
 40
0.0
 40
0.0
 40
0.2985576021
 40
0.5537177844
 40
0.7820826588
 40
1.0
 40
1.0
 40
1.0
 40
1.0
 10
202.2173078533
 20
340.31564777
 30
0.0
 10
202.420257342
 20
340.3113447275
 30
0.0
 10
202.805111271
 20
340.391321449
 30
0.0
 10
203.2402872363
 20
340.7218578369
 30
0.0
 10
203.4860201657
 20
341.143199649
 30
0.0
 10
203.5377129226
 20
341.4493234849
 30
0.0
 10
203.5377129226
 20
341.5974897096
 30
0.0
  0
SPLINE
  5
3E0
100
AcDbEntity
  8
0
100
AcDbSpline
 62
9
  6
CONTINUOUS
 70
0
 71
3
 72
9
 73
5
 74
0
 42
0.0000001
 43
0.0000001
 44
0.0000000001
 40
0.0
 40
0.0
 40
0.0
 40
0.0
 40
0.6739402808
 40
1.0
 40
1.0
 40
1.0
 40
1.0
 10
203.7808473738
 20
342.7422701179
 30
0.0
 10
203.7870818145
 20
342.7297300602
 30
0.0
 10
203.7952117855
 20
342.7108726806
 30
0.0
 10
203.8052997463
 20
342.6920919651
 30
0.0
 10
203.8062434276
 20
342.6853825551
 30
0.0
  0
SPLINE
  5
3E1
100
AcDbEntity
  8
0
100
AcDbSpline
 62
9
  6
CONTINUOUS
 70
0
 71
3
 72
9
 73
5
 74
0
 42
0.0000001
 43
0.0000001
 44
0.0000000001
 40
0.0
 40
0.0
 40
0.0
 40
0.0
 40
0.6556742629
 40
1.0
 40
1.0
 40
1.0
 40
1.0
 10
203.8062434276
 20
342.6853825551
 30
0.0
 10
203.8062773237
 20
342.6851415603
 30
0.0
 10
203.8063292393
 20
342.6847930584
 30
0.0
 10
203.806209765
 20
342.6843711687
 30
0.0
 10
203.806096496
 20
342.6843119751
 30
0.0
  0
SPLINE
  5
3E2
100
AcDbEntity
  8
0
100
AcDbSpline
 62
9
  6
CONTINUOUS
 70
0
 71
3
 72
12
 73
8
 74
0
 42
0.0000001
 43
0.0000001
 44
0.0000000001
 40
0.0
 40
0.0
 40
0.0
 40
0.0
 40
0.0200781337
 40
0.0748645013
 40
0.2838257538
 40
0.6046020928
 40
1.0
 40
1.0
 40
1.0
 40
1.0
 10
203.8304086964
 20
342.8528967065
 30
0.0
 10
203.8308210823
 20
342.852498418
 30
0.0
 10
203.8287598313
 20
342.850128779
 30
0.0
 10
203.8252171097
 20
342.8444133854
 30
0.0
 10
203.8129198119
 20
342.8311018098
 30
0.0
 10
203.79587651
 20
342.8119377148
 30
0.0
 10
203.781644905
 20
342.79693261
 30
0.0
 10
203.7738604588
 20
342.7887549085
 30
0.0
  0
SPLINE
  5
3E3
100
AcDbEntity
  8
0
100
AcDbSpline
 62
7
  6
CONTINUOUS
 70
0
 71
3
 72
9
 73
5
 74
0
 42
0.0000001
 43
0.0000001
 44
0.0000000001
 40
0.0
 40
0.0
 40
0.0
 40
0.0
 40
0.6951982771
 40
1.0
 40
1.0
 40
1.0
 40
1.0
 10
203.4358024957
 20
344.3168261545
 30
0.0
 10
203.4595654559
 20
344.3168261545
 30
0.0
 10
203.4937817543
 20
344.3253513675
 30
0.0
 10
203.5274712692
 20
344.3205639365
 30
0.0
 10
203.5376674582
 20
344.3168261545
 30
0.0
  0
SPLINE
  5
3E4
100
AcDbEntity
  8
0
100
AcDbSpline
 62
9
  6
CONTINUOUS
 70
0
 71
3
 72
9
 73
5
 74
0
 42
0.0000001
 43
0.0000001
 44
0.0000000001
 40
0.0
 40
0.0
 40
0.0
 40
0.0
 40
0.5009724541
 40
1.0
 40
1.0
 40
1.0
 40
1.0
 10
203.5006272339
 20
342.064854873
 30
0.0
 10
203.4840682347
 20
342.0433134439
 30
0.0
 10
203.4404908938
 20
342.0074615361
 30
0.0
 10
203.3854974103
 20
341.9949065146
 30
0.0
 10
203.358432474
 20
341.9949505447
 30
0.0
  0
SPLINE
  5
3E5
100
AcDbEntity
  8
0
100
AcDbSpline
 62
7
  6
CONTINUOUS
 70
0
 71
3
 72
11
 73
7
 74
0
 42
0.0000001
 43
0.0000001
 44
0.0000000001
 40
0.0
 40
0.0
 40
0.0
 40
0.0
 40
0.2179171874
 40
0.4462817425
 40
0.701441585
 40
1.0
 40
1.0
 40
1.0
 40
1.0
 10
199.6877129226
 20
341.5974897096
 30
0.0
 10
199.6877129226
 20
341.4493235902
 30
0.0
 10
199.7394055645
 20
341.1432000759
 30
0.0
 10
199.9851380154
 20
340.7218586806
 30
0.0
 10
200.4203136302
 20
340.3913217484
 30
0.0
 10
200.8051679516
 20
340.3113447158
 30
0.0
 10
201.008117992
 20
340.31564777
 30
0.0
  0
SPLINE
  5
3E6
100
AcDbEntity
  8
0
100
AcDbSpline
 62
9
  6
CONTINUOUS
 70
0
 71
3
 72
9
 73
5
 74
0
 42
0.0000001
 43
0.0000001
 44
0.0000000001
 40
0.0
 40
0.0
 40
0.0
 40
0.0
 40
0.500167237
 40
1.0
 40
1.0
 40
1.0
 40
1.0
 10
203.3584275288
 20
342.0997357803
 30
0.0
 10
203.3773756609
 20
342.0997345399
 30
0.0
 10
203.4168384083
 20
342.115562002
 30
0.0
 10
203.4327095656
 20
342.1550142765
 30
0.0
 10
203.4327126753
 20
342.1739497373
 30
0.0
  0
SPLINE
  5
3E7
100
AcDbEntity
  8
0
100
AcDbSpline
 62
9
  6
CONTINUOUS
 70
0
 71
3
 72
9
 73
5
 74
0
 42
0.0000001
 43
0.0000001
 44
0.0000000001
 40
0.0
 40
0.0
 40
0.0
 40
0.0
 40
0.499832764
 40
1.0
 40
1.0
 40
1.0
 40
1.0
 10
199.7927131677
 20
342.1739497026
 30
0.0
 10
199.7927162862
 20
342.1550142426
 30
0.0
 10
199.8085874598
 20
342.1155619778
 30
0.0
 10
199.8480502102
 20
342.0997345313
 30
0.0
 10
199.8669983413
 20
342.099735778
 30
0.0
  0
SPLINE
  5
3E8
100
AcDbEntity
  8
0
100
AcDbSpline
 62
7
  6
CONTINUOUS
 70
0
 71
3
 72
9
 73
5
 74
0
 42
0.0000001
 43
0.0000001
 44
0.0000000001
 40
0.0
 40
0.0
 40
0.0
 40
0.0
 40
0.3048178469
 40
1.0
 40
1.0
 40
1.0
 40
1.0
 10
199.6877583871
 20
344.3168261545
 30
0.0
 10
199.6979551388
 20
344.3205641099
 30
0.0
 10
199.7316446982
 20
344.3253511143
 30
0.0
 10
199.7658609452
 20
344.3168261545
 30
0.0
 10
199.7896233496
 20
344.3168261545
 30
0.0
  0
SPLINE
  5
3E9
100
AcDbEntity
  8
0
100
AcDbSpline
 62
7
  6
CONTINUOUS
 70
0
 71
3
 72
11
 73
7
 74
0
 42
0.0000001
 43
0.0000001
 44
0.0000000001
 40
0.0
 40
0.0
 40
0.0
 40
0.0
 40
0.4769450129
 40
0.7794927379
 40
0.9409510002
 40
1.0
 40
1.0
 40
1.0
 40
1.0
 10
200.6485644648
 20
341.8973707925
 30
0.0
 10
200.6321180863
 20
341.8973707925
 30
0.0
 10
200.6058708834
 20
341.8979372933
 30
0.0
 10
200.5717534241
 20
341.9007375353
 30
0.0
 10
200.5566035059
 20
341.9034148317
 30
0.0
 10
200.5466234952
 20
341.9063680772
 30
0.0
 10
200.5466945566
 20
341.9084030091
 30
0.0
  0
SPLINE
  5
3EA
100
AcDbEntity
  8
0
100
AcDbSpline
 62
7
  6
CONTINUOUS
 70
0
 71
3
 72
10
 73
6
 74
0
 42
0.0000001
 43
0.0000001
 44
0.0000000001
 40
0.0
 40
0.0
 40
0.0
 40
0.0
 40
0.0682209954
 40
0.236357747
 40
1.0
 40
1.0
 40
1.0
 40
1.0
 10
202.6787312887
 20
341.9084030091
 30
0.0
 10
202.6787789171
 20
341.9070391085
 30
0.0
 10
202.6732286122
 20
341.9043985808
 30
0.0
 10
202.6555340787
 20
341.9007664581
 30
0.0
 10
202.635618095
 20
341.8991630732
 30
0.0
 10
202.6203608627
 20
341.8983992976
 30
0.0
  0
SPLINE
  5
3EB
100
AcDbEntity
  8
0
100
AcDbSpline
 62
7
  6
CONTINUOUS
 70
0
 71
3
 72
9
 73
5
 74
0
 42
0.0000001
 43
0.0000001
 44
0.0000000001
 40
0.0
 40
0.0
 40
0.0
 40
0.0
 40
0.2242175989
 40
1.0
 40
1.0
 40
1.0
 40
1.0
 10
202.6203608627
 20
341.8983992976
 30
0.0
 10
202.6171127255
 20
341.8982366962
 30
0.0
 10
202.6026209796
 20
341.8976185915
 30
0.0
 10
202.5881138561
 20
341.8973707925
 30
0.0
 10
202.5768613805
 20
341.8973707925
 30
0.0
  0
SPLINE
  5
3EC
100
AcDbEntity
  8
0
100
AcDbSpline
 62
9
  6
CONTINUOUS
 70
0
 71
3
 72
8
 73
4
 74
0
 42
0.0000001
 43
0.0000001
 44
0.0000000001
 40
0.0
 40
0.0
 40
0.0
 40
0.0
 40
1.0
 40
1.0
 40
1.0
 40
1.0
 10
199.8669933763
 20
341.9949505345
 30
0.0
 10
199.8165927706
 20
341.9948685416
 30
0.0
 10
199.7623166035
 20
342.0200537597
 30
0.0
 10
199.729838405
 20
342.0585945744
 30
0.0
  0
SPLINE
  5
3ED
100
AcDbEntity
  8
0
100
AcDbSpline
 62
9
  6
CONTINUOUS
 70
0
 71
3
 72
9
 73
5
 74
0
 42
0.0000001
 43
0.0000001
 44
0.0000000001
 40
0.0
 40
0.0
 40
0.0
 40
0.0
 40
0.2711364946
 40
1.0
 40
1.0
 40
1.0
 40
1.0
 10
199.4624659308
 20
342.7773707871
 30
0.0
 10
199.458304059
 20
342.7816918043
 30
0.0
 10
199.4430116136
 20
342.7976831097
 30
0.0
 10
199.4278891905
 20
342.8138403566
 30
0.0
 10
199.4170842732
 20
342.8258130625
 30
0.0
  0
LINE
  5
3EE
100
AcDbEntity
  8
0
100
AcDbLine
 62
9
  6
CONTINUOUS
 10
199.4170842732
 20
342.8258130625
 30
0.0
 11
199.4029439586
 21
342.8419048983
 31
0.0
  0
SPLINE
  5
3EF
100
AcDbEntity
  8
0
100
AcDbSpline
 62
9
  6
CONTINUOUS
 70
0
 71
3
 72
9
 73
5
 74
0
 42
0.0000001
 43
0.0000001
 44
0.0000000001
 40
0.0
 40
0.0
 40
0.0
 40
0.0
 40
0.7371787998
 40
1.0
 40
1.0
 40
1.0
 40
1.0
 10
199.4029439586
 20
342.8419048983
 30
0.0
 10
199.4007896801
 20
342.8444593442
 30
0.0
 10
199.399494616
 20
342.8474040893
 30
0.0
 10
199.3941602192
 20
342.8520690709
 30
0.0
 10
199.3950171489
 20
342.8528967065
 30
0.0
  0
SPLINE
  5
3F0
100
AcDbEntity
  8
0
100
AcDbSpline
 62
9
  6
CONTINUOUS
 70
0
 71
3
 72
11
 73
7
 74
0
 42
0.0000001
 43
0.0000001
 44
0.0000000001
 40
0.0
 40
0.0
 40
0.0
 40
0.0
 40
0.0738348929
 40
0.2803519485
 40
0.5996226536
 40
1.0
 40
1.0
 40
1.0
 40
1.0
 10
199.4193293493
 20
342.6843119751
 30
0.0
 10
199.4176695753
 20
342.6851793609
 30
0.0
 10
199.423585639
 20
342.6944883169
 30
0.0
 10
199.426355012
 20
342.7061206496
 30
0.0
 10
199.4380978393
 20
342.728600671
 30
0.0
 10
199.445700406
 20
342.7445818389
 30
0.0
 10
199.4502827821
 20
342.753644398
 30
0.0
  0
SPLINE
  5
3F1
100
AcDbEntity
  8
PORTALENTE
100
AcDbSpline
 62
7
  6
CONTINUOUS
 70
0
 71
3
 72
12
 73
8
 74
0
 42
0.0000001
 43
0.0000001
 44
0.0000000001
 40
0.0
 40
0.0
 40
0.0
 40
0.0
 40
0.1233154382
 40
0.2488945608
 40
0.439579013
 40
0.6303497674
 40
1.0
 40
1.0
 40
1.0
 40
1.0
 10
191.4766906595
 20
68.1272716962
 30
0.0
 10
191.7731900126
 20
67.7484168703
 30
0.0
 10
192.4188714643
 20
67.0196260638
 30
0.0
 10
193.6929895684
 20
65.8678947604
 30
0.0
 10
195.3295387609
 20
64.739530158
 30
0.0
 10
197.9703796141
 20
63.4600045485
 30
0.0
 10
200.1706128016
 20
62.9834900438
 30
0.0
 10
201.6127129226
 20
62.9834900438
 30
0.0
  0
SPLINE
  5
3F2
100
AcDbEntity
  8
PORTALENTE
100
AcDbSpline
 62
7
  6
CONTINUOUS
 70
0
 71
3
 72
12
 73
8
 74
0
 42
0.0000001
 43
0.0000001
 44
0.0000000001
 40
0.0
 40
0.0
 40
0.0
 40
0.0
 40
0.1233154382
 40
0.2488945608
 40
0.439579013
 40
0.6303497674
 40
1.0
 40
1.0
 40
1.0
 40
1.0
 10
211.7487351857
 20
68.1272716962
 30
0.0
 10
211.4522358327
 20
67.7484168703
 30
0.0
 10
210.806554381
 20
67.0196260638
 30
0.0
 10
209.5324362769
 20
65.8678947604
 30
0.0
 10
207.8958870843
 20
64.739530158
 30
0.0
 10
205.2550462312
 20
63.4600045485
 30
0.0
 10
203.0548130437
 20
62.9834900438
 30
0.0
 10
201.6127129226
 20
62.9834900438
 30
0.0
  0
SPLINE
  5
3F3
100
AcDbEntity
  8
TUBETTO
100
AcDbSpline
 62
7
  6
CONTINUOUS
 70
0
 71
3
 72
10
 73
6
 74
0
 42
0.0000001
 43
0.0000001
 44
0.0000000001
 40
0.0
 40
0.0
 40
0.0
 40
0.0
 40
0.4237539753
 40
0.7011110911
 40
1.0
 40
1.0
 40
1.0
 40
1.0
 10
202.6189724414
 20
79.080988484
 30
0.0
 10
202.5679356578
 20
79.1621824865
 30
0.0
 10
202.4898605901
 20
79.3012112024
 30
0.0
 10
202.4129797558
 20
79.5149938877
 30
0.0
 10
202.3953367148
 20
79.6458468218
 30
0.0
 10
202.3953367148
 20
79.7134900438
 30
0.0
  0
SPLINE
  5
3F4
100
AcDbEntity
  8
TUBETTO
100
AcDbSpline
 62
7
  6
CONTINUOUS
 70
0
 71
3
 72
10
 73
6
 74
0
 42
0.0000001
 43
0.0000001
 44
0.0000000001
 40
0.0
 40
0.0
 40
0.0
 40
0.0
 40
0.2989041184
 40
0.576254246
 40
1.0
 40
1.0
 40
1.0
 40
1.0
 10
202.3953367148
 20
81.8134900438
 30
0.0
 10
202.3953367148
 20
81.881137196
 30
0.0
 10
202.4129792258
 20
82.0119932948
 30
0.0
 10
202.4898656547
 20
82.2257759755
 30
0.0
 10
202.5679411476
 20
82.3648012427
 30
0.0
 10
202.6189750066
 20
82.4459957032
 30
0.0
  0
ELLIPSE
  5
3F5
100
AcDbEntity
  8
0
100
AcDbEllipse
 62
7
  6
CONTINUOUS
 10
80.6630744298
 20
342.6024241014
 30
0.0
 11
-0.1237813831
 21
-0.1237813831
 31
0.0
 40
0.9996954599
 41
5.497939437
 42
7.0684311773
  0
ELLIPSE
  5
3F6
100
AcDbEntity
  8
0
100
AcDbEllipse
 62
7
  6
CONTINUOUS
 10
80.484186782
 20
342.4689908733
 30
0.0
 11
0.0066557719
 21
0.2850346553
 31
0.0
 40
0.0182245015
 41
-1.0678686829
 42
-0.662716967
  0
ELLIPSE
  5
3F7
100
AcDbEntity
  8
0
100
AcDbEllipse
 62
7
  6
CONTINUOUS
 10
80.3701110667
 20
343.7345622968
 30
0.0
 11
0.0866469682
 21
0.0866469682
 31
0.0
 40
0.9996954599
 41
-0.7852458701
 42
0.7852458702
  0
ELLIPSE
  5
3F8
100
AcDbEntity
  8
0
100
AcDbEllipse
 62
7
  6
CONTINUOUS
 10
80.3351483871
 20
343.7345622968
 30
0.0
 11
0.0866469682
 21
-0.0866469682
 31
0.0
 40
0.9996954599
 41
2.3563467834
 42
3.9268385238
  0
ELLIPSE
  5
3F9
100
AcDbEntity
  8
0
100
AcDbEllipse
 62
7
  6
CONTINUOUS
 10
80.5626830417
 20
342.6070327134
 30
0.0
 11
-0.2475627662
 21
-0.2475627662
 31
0.0
 40
0.9996954599
 41
-0.7852458702
 42
0.7852458701
  0
ELLIPSE
  5
3FA
100
AcDbEntity
  8
0
100
AcDbEllipse
 62
7
  6
CONTINUOUS
 10
82.1725764121
 20
342.6070327134
 30
0.0
 11
0.2475627662
 21
-0.2475627662
 31
0.0
 40
0.9996954599
 41
-0.7852458702
 42
0.7852458701
  0
ELLIPSE
  5
3FB
100
AcDbEntity
  8
0
100
AcDbEllipse
 62
7
  6
CONTINUOUS
 10
82.4001110667
 20
343.7345622968
 30
0.0
 11
0.0866469682
 21
0.0866469682
 31
0.0
 40
0.9996954599
 41
-0.7852458702
 42
0.7852458702
  0
ELLIPSE
  5
3FC
100
AcDbEntity
  8
0
100
AcDbEllipse
 62
7
  6
CONTINUOUS
 10
82.3651483871
 20
343.7345622968
 30
0.0
 11
0.0866469682
 21
-0.0866469682
 31
0.0
 40
0.9996954599
 41
2.3563467834
 42
3.9268385238
  0
ELLIPSE
  5
3FD
100
AcDbEntity
  8
0
100
AcDbEllipse
 62
7
  6
CONTINUOUS
 10
82.0721850241
 20
342.6024241014
 30
0.0
 11
-0.1237813831
 21
0.1237813831
 31
0.0
 40
0.9996954599
 41
2.3563467834
 42
3.9268385237
  0
ELLIPSE
  5
3FE
100
AcDbEntity
  8
0
100
AcDbEllipse
 62
7
  6
CONTINUOUS
 10
80.6602377261
 20
342.9166220784
 30
0.0
 11
-0.0798187141
 21
0.2118033156
 31
0.0
 40
0.6958430515
 41
-0.2564562233
 42
1.0744424532
  0
ELLIPSE
  5
3FF
100
AcDbEntity
  8
0
100
AcDbEllipse
 62
7
  6
CONTINUOUS
 10
71.5517768153
 20
342.6070327133
 30
0.0
 11
0.2475627662
 21
0.2475627662
 31
0.0
 40
0.9996954599
 41
-3.9268385237
 42
-2.3563467834
  0
ELLIPSE
  5
400
100
AcDbEntity
  8
0
100
AcDbEllipse
 62
7
  6
CONTINUOUS
 10
73.1616701857
 20
342.6070327133
 30
0.0
 11
0.2475627662
 21
-0.2475627662
 31
0.0
 40
0.9996954599
 41
-0.7852458702
 42
0.7852458701
  0
ELLIPSE
  5
401
100
AcDbEntity
  8
0
100
AcDbEllipse
 62
7
  6
CONTINUOUS
 10
82.3697303417
 20
343.7299803423
 30
0.0
 11
0.0866469682
 21
-0.0866469682
 31
0.0
 40
0.9996954599
 41
2.3563467834
 42
3.9268385237
  0
ELLIPSE
  5
402
100
AcDbEntity
  8
0
100
AcDbEllipse
 62
7
  6
CONTINUOUS
 10
102.4715026349
 20
343.8570809569
 30
0.0
 11
0.1050159944
 21
-0.0
 31
0.0
 40
0.9998476952
 41
0.0
 42
1.5707963268
  0
ELLIPSE
  5
403
100
AcDbEntity
  8
0
100
AcDbEllipse
 62
7
  6
CONTINUOUS
 10
82.3955291122
 20
343.7299803423
 30
0.0
 11
0.0866469682
 21
0.0866469682
 31
0.0
 40
0.9996954599
 41
-0.7852458701
 42
0.7852458701
  0
ELLIPSE
  5
404
100
AcDbEntity
  8
0
100
AcDbEllipse
 62
7
  6
CONTINUOUS
 10
100.652962074
 20
343.857080957
 30
0.0
 11
0.1050159944
 21
0.0
 31
0.0
 40
0.9998476952
 41
1.5707963268
 42
3.1415926536
  0
ELLIPSE
  5
405
100
AcDbEntity
  8
0
100
AcDbEllipse
 62
7
  6
CONTINUOUS
 10
82.1679944576
 20
342.6116146679
 30
0.0
 11
0.2475627662
 21
-0.2475627662
 31
0.0
 40
0.9996954599
 41
-0.7852458702
 42
0.7852458701
  0
ELLIPSE
  5
406
100
AcDbEntity
  8
0
100
AcDbEllipse
 62
7
  6
CONTINUOUS
 10
73.2401664455
 20
342.4689908733
 30
0.0
 11
-0.0066557719
 21
0.2850346553
 31
0.0
 40
0.0182245015
 41
0.6627169671
 42
1.0678686829
  0
ELLIPSE
  5
407
100
AcDbEntity
  8
0
100
AcDbEllipse
 62
7
  6
CONTINUOUS
 10
71.6521682034
 20
342.6024241014
 30
0.0
 11
0.1237813831
 21
0.1237813831
 31
0.0
 40
0.9996954599
 41
8.6395320906
 42
10.2100238309
  0
ELLIPSE
  5
408
100
AcDbEntity
  8
0
100
AcDbEllipse
 62
7
  6
CONTINUOUS
 10
71.3592048403
 20
343.7345622968
 30
0.0
 11
-0.0866469682
 21
-0.0866469682
 31
0.0
 40
0.9996954599
 41
2.3563467834
 42
3.9268385237
  0
ELLIPSE
  5
409
100
AcDbEntity
  8
0
100
AcDbEllipse
 62
7
  6
CONTINUOUS
 10
71.3242421607
 20
343.7345622968
 30
0.0
 11
-0.0866469682
 21
0.0866469682
 31
0.0
 40
0.9996954599
 41
-0.7852458702
 42
0.7852458702
  0
ELLIPSE
  5
40A
100
AcDbEntity
  8
0
100
AcDbEllipse
 62
7
  6
CONTINUOUS
 10
73.3892048403
 20
343.7345622968
 30
0.0
 11
-0.0866469682
 21
-0.0866469682
 31
0.0
 40
0.9996954599
 41
2.3563467834
 42
3.9268385237
  0
ELLIPSE
  5
40B
100
AcDbEntity
  8
0
100
AcDbEllipse
 62
7
  6
CONTINUOUS
 10
73.3542421607
 20
343.7345622968
 30
0.0
 11
-0.0866469682
 21
0.0866469682
 31
0.0
 40
0.9996954599
 41
-0.7852458701
 42
0.7852458702
  0
ELLIPSE
  5
40C
100
AcDbEntity
  8
0
100
AcDbEllipse
 62
7
  6
CONTINUOUS
 10
73.0612787976
 20
342.6024241014
 30
0.0
 11
0.1237813831
 21
-0.1237813831
 31
0.0
 40
0.9996954599
 41
-0.7852458702
 42
0.7852458701
  0
ELLIPSE
  5
40D
100
AcDbEntity
  8
0
100
AcDbEllipse
 62
7
  6
CONTINUOUS
 10
80.5672649963
 20
342.6116146679
 30
0.0
 11
-0.2475627662
 21
-0.2475627662
 31
0.0
 40
0.9996954599
 41
-0.7852458702
 42
0.7852458701
  0
ELLIPSE
  5
40E
100
AcDbEntity
  8
0
100
AcDbEllipse
 62
7
  6
CONTINUOUS
 10
80.3397303417
 20
343.7299803423
 30
0.0
 11
0.0866469682
 21
-0.0866469682
 31
0.0
 40
0.9996954599
 41
2.3563467834
 42
3.9268385237
  0
ELLIPSE
  5
40F
100
AcDbEntity
  8
0
100
AcDbEllipse
 62
7
  6
CONTINUOUS
 10
71.3546228858
 20
343.7299803423
 30
0.0
 11
-0.0866469682
 21
-0.0866469682
 31
0.0
 40
0.9996954599
 41
2.3563467834
 42
3.9268385237
  0
ELLIPSE
  5
410
100
AcDbEntity
  8
0
100
AcDbEllipse
 62
7
  6
CONTINUOUS
 10
73.3588241152
 20
343.7299803423
 30
0.0
 11
-0.0866469682
 21
0.0866469682
 31
0.0
 40
0.9996954599
 41
-0.7852458701
 42
0.7852458702
  0
ELLIPSE
  5
411
100
AcDbEntity
  8
0
100
AcDbEllipse
 62
7
  6
CONTINUOUS
 10
73.3846228858
 20
343.7299803423
 30
0.0
 11
-0.0866469682
 21
-0.0866469682
 31
0.0
 40
0.9996954599
 41
2.3563467834
 42
3.9268385237
  0
ELLIPSE
  5
412
100
AcDbEntity
  8
0
100
AcDbEllipse
 62
7
  6
CONTINUOUS
 10
73.1570882311
 20
342.6116146679
 30
0.0
 11
0.2475627662
 21
-0.2475627662
 31
0.0
 40
0.9996954599
 41
-0.7852458702
 42
0.7852458701
  0
ELLIPSE
  5
413
100
AcDbEntity
  8
0
100
AcDbEllipse
 62
7
  6
CONTINUOUS
 10
71.5563587699
 20
342.6116146679
 30
0.0
 11
-0.2475627662
 21
-0.2475627662
 31
0.0
 40
0.9996954599
 41
-0.7852458702
 42
0.7852458702
  0
ELLIPSE
  5
414
100
AcDbEntity
  8
0
100
AcDbEllipse
 62
7
  6
CONTINUOUS
 10
102.4715026349
 20
342.3140603261
 30
0.0
 11
0.1050159944
 21
-0.0
 31
0.0
 40
0.9998476952
 41
-1.5707963268
 42
-0.0
  0
ELLIPSE
  5
415
100
AcDbEntity
  8
0
100
AcDbEllipse
 62
7
  6
CONTINUOUS
 10
71.3288241152
 20
343.7299803423
 30
0.0
 11
-0.0866469682
 21
0.0866469682
 31
0.0
 40
0.9996954599
 41
-0.7852458702
 42
0.7852458702
  0
ELLIPSE
  5
416
100
AcDbEntity
  8
0
100
AcDbEllipse
 62
7
  6
CONTINUOUS
 10
100.8421204838
 20
342.7944500688
 30
0.0
 11
0.0
 21
0.28
 31
0.0
 40
0.0524077793
 41
-2.660034665
 42
-0.7680101238
  0
ELLIPSE
  5
417
100
AcDbEntity
  8
0
100
AcDbEllipse
 62
7
  6
CONTINUOUS
 10
80.3655291122
 20
343.7299803423
 30
0.0
 11
0.0866469682
 21
0.0866469682
 31
0.0
 40
0.9996954599
 41
-0.7852458701
 42
0.7852458701
  0
ELLIPSE
  5
418
100
AcDbEntity
  8
0
100
AcDbEllipse
 62
7
  6
CONTINUOUS
 10
102.2823442251
 20
342.7944500688
 30
0.0
 11
-0.0
 21
0.28
 31
0.0
 40
0.0524077793
 41
0.7680101237
 42
2.660034665
  0
ELLIPSE
  5
419
100
AcDbEntity
  8
0
100
AcDbEllipse
 62
7
  6
CONTINUOUS
 10
100.8575722604
 20
343.2395735386
 30
0.0
 11
0.0
 21
0.245
 31
0.0
 40
0.0524077793
 41
-4.7123889804
 42
-3.9096027774
  0
ELLIPSE
  5
41A
100
AcDbEntity
  8
0
100
AcDbEllipse
 62
7
  6
CONTINUOUS
 10
102.2668924485
 20
343.2395735386
 30
0.0
 11
-0.0
 21
0.245
 31
0.0
 40
0.0524077793
 41
-2.3735825299
 42
-1.5707963269
  0
ELLIPSE
  5
41B
100
AcDbEntity
  8
0
100
AcDbEllipse
 62
7
  6
CONTINUOUS
 10
53.0713911534
 20
343.857080957
 30
0.0
 11
-0.1050159944
 21
0.0
 31
0.0
 40
0.9998476952
 41
3.1415926536
 42
4.7123889804
  0
ELLIPSE
  5
41C
100
AcDbEntity
  8
0
100
AcDbEllipse
 62
7
  6
CONTINUOUS
 10
51.2528505926
 20
342.3140603261
 30
0.0
 11
-0.1050159944
 21
0.0
 31
0.0
 40
0.9998476952
 41
0.0
 42
1.5707963268
  0
ELLIPSE
  5
41D
100
AcDbEntity
  8
0
100
AcDbEllipse
 62
7
  6
CONTINUOUS
 10
51.2528505926
 20
343.8570809569
 30
0.0
 11
-0.1050159944
 21
-0.0
 31
0.0
 40
0.9998476952
 41
-1.5707963268
 42
-0.0
  0
ELLIPSE
  5
41E
100
AcDbEntity
  8
0
100
AcDbEllipse
 62
7
  6
CONTINUOUS
 10
73.0641155013
 20
342.9166220784
 30
0.0
 11
0.0798187141
 21
0.2118033156
 31
0.0
 40
0.6958430515
 41
-1.0744424532
 42
0.2564562233
  0
ELLIPSE
  5
41F
100
AcDbEntity
  8
0
100
AcDbEllipse
 62
7
  6
CONTINUOUS
 10
51.4574607789
 20
343.2395735386
 30
0.0
 11
0.0
 21
0.245
 31
0.0
 40
0.0524077793
 41
-4.7123889802
 42
-3.9096027773
  0
ELLIPSE
  5
420
100
AcDbEntity
  8
0
100
AcDbEllipse
 62
7
  6
CONTINUOUS
 10
71.5868675968
 20
342.9896102663
 30
0.0
 11
-0.0079150626
 21
0.1458654692
 31
0.0
 40
0.7187839429
 41
-0.0389834391
 42
1.495446806
  0
ELLIPSE
  5
421
100
AcDbEntity
  8
0
100
AcDbEllipse
 62
7
  6
CONTINUOUS
 10
52.8667809671
 20
343.2395735386
 30
0.0
 11
-0.0
 21
0.245
 31
0.0
 40
0.0524077793
 41
-2.3735825298
 42
-1.5707963268
  0
ELLIPSE
  5
422
100
AcDbEntity
  8
0
100
AcDbEllipse
 62
7
  6
CONTINUOUS
 10
51.4420090023
 20
342.7944500688
 30
0.0
 11
0.0
 21
0.28
 31
0.0
 40
0.0524077793
 41
3.6231506422
 42
5.5151751834
  0
ELLIPSE
  5
423
100
AcDbEntity
  8
0
100
AcDbEllipse
 62
7
  6
CONTINUOUS
 10
52.8822327437
 20
342.7944500688
 30
0.0
 11
-0.0
 21
0.28
 31
0.0
 40
0.0524077793
 41
0.7680101238
 42
2.660034665
  0
ELLIPSE
  5
424
100
AcDbEntity
  8
0
100
AcDbEllipse
 62
7
  6
CONTINUOUS
 10
200.8981948152
 20
341.9452555197
 30
0.0
 11
0.3502127852
 21
0.0000091232
 31
0.0
 40
0.0639260029
 41
1.5703888175
 42
3.1393586448
  0
ELLIPSE
  5
425
100
AcDbEntity
  8
0
100
AcDbEllipse
 62
7
  6
CONTINUOUS
 10
202.3272310301
 20
341.9452555197
 30
0.0
 11
0.3502127852
 21
-0.0000091232
 31
0.0
 40
0.0639260029
 41
0.0022340088
 42
1.5712038361
  0
ELLIPSE
  5
426
100
AcDbEntity
  8
0
100
AcDbEllipse
 62
7
  6
CONTINUOUS
 10
201.6127129226
 20
340.1985142112
 30
0.0
 11
1.925
 21
0.0
 31
0.0
 40
0.0640917686
 41
7.5344991345
 42
8.1734641334
  0
ENDSEC
  0
SECTION
  2
OBJECTS
  0
DICTIONARY
  5
C
100
AcDbDictionary
280
0
281
1
  3
ACAD_GROUP
350
D
  3
ACAD_MLINESTYLE
350
17
  3
ACAD_LAYOUT
350
1A
  3
ACAD_PLOTSETTINGS
350
19
  3
ACAD_PLOTSTYLENAME
350
E
  0
DICTIONARY
  5
D
102
{ACAD_REACTORS
330
C
102
}
100
AcDbDictionary
280
0
281
1
  0
ACDBDICTIONARYWDFLT
  5
E
102
{ACAD_REACTORS
330
C
102
}
100
AcDbDictionary
281
1
  3
Normal
350
F
100
AcDbDictionaryWithDefault
340
F
  0
DICTIONARY
  5
17
102
{ACAD_REACTORS
330
C
102
}
100
AcDbDictionary
280
0
281
1
  3
Standard
350
18
  0
DICTIONARY
  5
19
102
{ACAD_REACTORS
330
C
102
}
100
AcDbDictionary
281
1
  0
DICTIONARY
  5
1A
102
{ACAD_REACTORS
330
C
102
}
100
AcDbDictionary
281
1
  3
Model
350
427
  3
Layout1
350
428
  0
ACDBPLACEHOLDER
  5
F
102
{ACAD_REACTORS
330
E
102
}
  0
MLINESTYLE
  5
18
102
{ACAD_REACTORS
330
17
102
}
100
AcDbMlineStyle
  2
STANDARD
 70
0
  3

 62
256
 51
90.0
 52
90.0
 71
2
 49
0.5
 62
256
  6
BYLAYER
 49
-0.5
 62
256
  6
BYLAYER
  0
LAYOUT
  5
427
102
{ACAD_REACTORS
330
1A
102
}
100
AcDbPlotSettings
  1

  2
none_device
  4

  6

 40
0.0
 41
0.0
 42
0.0
 43
0.0
 44
297.0
 45
420.0
 46
0.0
 47
0.0
 48
0.0
 49
0.0
140
0.0
141
0.0
142
1.0
143
1.0
 70
1024
 72
1
 73
0
 74
0
  7

 75
0
147
1.0
148
0.0
149
0.0
100
AcDbLayout
  1
Model
 70
0
 71
0
 10
0.0
 20
0.0
 11
297.0
 21
420.0
 12
0.0
 22
0.0
 32
0.0
 14
0.0
 24
0.0
 34
0.0
 15
0.0
 25
0.0
 35
0.0
146
0.0
 13
0.0
 23
0.0
 33
0.0
 16
1.0
 26
0.0
 36
0.0
 17
0.0
 27
1.0
 37
0.0
 76
0
330
218
345
0
346
0
  0
LAYOUT
  5
428
102
{ACAD_REACTORS
330
1A
102
}
100
AcDbPlotSettings
  1

  2
none_device
  4

  6

 40
0.0
 41
0.0
 42
0.0
 43
0.0
 44
297.0
 45
420.0
 46
0.0
 47
0.0
 48
0.0
 49
0.0
140
0.0
141
0.0
142
1.0
143
1.0
 70
0
 72
1
 73
0
 74
0
  7

 75
0
147
1.0
148
0.0
149
0.0
100
AcDbLayout
  1
Layout1
 70
0
 71
1
 10
0.0
 20
0.0
 11
297.0
 21
420.0
 12
0.0
 22
0.0
 32
0.0
 14
0.0
 24
0.0
 34
0.0
 15
0.0
 25
0.0
 35
0.0
146
0.0
 13
0.0
 23
0.0
 33
0.0
 16
1.0
 26
0.0
 36
0.0
 17
0.0
 27
1.0
 37
0.0
 76
0
330
219
345
0
346
0
  0
ENDSEC
  0
EOF
